  0
SECTION
  2
HEADER
  9
$ACADVER
  1
AC1015
  9
$ACADMAINTVER
 70
    20
  9
$DWGCODEPAGE
  3
ANSI_1252
  9
$INSBASE
 10
0.0
 20
0.0
 30
0.0
  9
$EXTMIN
 10
-24.90234145068371
 20
-8.041379516992492
 30
-0.0305152498540338
  9
$EXTMAX
 10
24.9176037322236
 20
242.050172344374
 30
201.0040297184651
  9
$LIMMIN
 10
0.0
 20
0.0
  9
$LIMMAX
 10
420.0
 20
297.0
  9
$ORTHOMODE
 70
     0
  9
$REGENMODE
 70
     1
  9
$FILLMODE
 70
     1
  9
$QTEXTMODE
 70
     0
  9
$MIRRTEXT
 70
     1
  9
$LTSCALE
 40
1.0
  9
$ATTMODE
 70
     1
  9
$TEXTSIZE
 40
2.5
  9
$TRACEWID
 40
1.0
  9
$TEXTSTYLE
  7
STANDARD
  9
$CLAYER
  8
0
  9
$CELTYPE
  6
ByLayer
  9
$CECOLOR
 62
   256
  9
$CELTSCALE
 40
1.0
  9
$DISPSILH
 70
     0
  9
$DIMSCALE
 40
1.0
  9
$DIMASZ
 40
2.5
  9
$DIMEXO
 40
0.625
  9
$DIMDLI
 40
3.75
  9
$DIMRND
 40
0.0
  9
$DIMDLE
 40
0.0
  9
$DIMEXE
 40
1.25
  9
$DIMTP
 40
0.0
  9
$DIMTM
 40
0.0
  9
$DIMTXT
 40
2.5
  9
$DIMCEN
 40
2.5
  9
$DIMTSZ
 40
0.0
  9
$DIMTOL
 70
     0
  9
$DIMLIM
 70
     0
  9
$DIMTIH
 70
     0
  9
$DIMTOH
 70
     0
  9
$DIMSE1
 70
     0
  9
$DIMSE2
 70
     0
  9
$DIMTAD
 70
     1
  9
$DIMZIN
 70
     8
  9
$DIMBLK
  1

  9
$DIMASO
 70
     1
  9
$DIMSHO
 70
     1
  9
$DIMPOST
  1

  9
$DIMAPOST
  1

  9
$DIMALT
 70
     0
  9
$DIMALTD
 70
     3
  9
$DIMALTF
 40
0.03937007874016
  9
$DIMLFAC
 40
1.0
  9
$DIMTOFL
 70
     1
  9
$DIMTVP
 40
0.0
  9
$DIMTIX
 70
     0
  9
$DIMSOXD
 70
     0
  9
$DIMSAH
 70
     0
  9
$DIMBLK1
  1

  9
$DIMBLK2
  1

  9
$DIMSTYLE
  2
ISO-25
  9
$DIMCLRD
 70
     0
  9
$DIMCLRE
 70
     0
  9
$DIMCLRT
 70
     0
  9
$DIMTFAC
 40
1.0
  9
$DIMGAP
 40
0.625
  9
$DIMJUST
 70
     0
  9
$DIMSD1
 70
     0
  9
$DIMSD2
 70
     0
  9
$DIMTOLJ
 70
     1
  9
$DIMTZIN
 70
     0
  9
$DIMALTZ
 70
     0
  9
$DIMALTTZ
 70
     0
  9
$DIMUPT
 70
     0
  9
$DIMDEC
 70
     4
  9
$DIMTDEC
 70
     4
  9
$DIMALTU
 70
     2
  9
$DIMALTTD
 70
     2
  9
$DIMTXSTY
  7
STANDARD
  9
$DIMAUNIT
 70
     0
  9
$DIMADEC
 70
     0
  9
$DIMALTRND
 40
0.0
  9
$DIMAZIN
 70
     0
  9
$DIMDSEP
 70
    46
  9
$DIMATFIT
 70
     3
  9
$DIMFRAC
 70
     0
  9
$DIMLDRBLK
  1

  9
$DIMLUNIT
 70
     2
  9
$DIMLWD
 70
    -2
  9
$DIMLWE
 70
    -2
  9
$DIMTMOVE
 70
     0
  9
$LUNITS
 70
     2
  9
$LUPREC
 70
     4
  9
$SKETCHINC
 40
1.0
  9
$FILLETRAD
 40
10.0
  9
$AUNITS
 70
     0
  9
$AUPREC
 70
     0
  9
$MENU
  1
.
  9
$ELEVATION
 40
0.0
  9
$PELEVATION
 40
0.0
  9
$THICKNESS
 40
0.0
  9
$LIMCHECK
 70
     0
  9
$CHAMFERA
 40
10.0
  9
$CHAMFERB
 40
10.0
  9
$CHAMFERC
 40
0.0
  9
$CHAMFERD
 40
0.0
  9
$SKPOLY
 70
     0
  9
$TDCREATE
 40
2454456.618414352
  9
$TDUCREATE
 40
2454456.389247685
  9
$TDUPDATE
 40
2454456.633051747
  9
$TDUUPDATE
 40
2454456.403885081
  9
$TDINDWG
 40
0.0024106829
  9
$TDUSRTIMER
 40
0.0024104977
  9
$USRTIMER
 70
     1
  9
$ANGBASE
 50
0.0
  9
$ANGDIR
 70
     0
  9
$PDMODE
 70
     0
  9
$PDSIZE
 40
0.0
  9
$PLINEWID
 40
0.0
  9
$SPLFRAME
 70
     0
  9
$SPLINETYPE
 70
     6
  9
$SPLINESEGS
 70
     8
  9
$HANDSEED
  5
166
  9
$SURFTAB1
 70
     6
  9
$SURFTAB2
 70
     6
  9
$SURFTYPE
 70
     6
  9
$SURFU
 70
     6
  9
$SURFV
 70
     6
  9
$UCSBASE
  2

  9
$UCSNAME
  2

  9
$UCSORG
 10
0.0
 20
0.0
 30
0.0
  9
$UCSXDIR
 10
1.0
 20
0.0
 30
0.0
  9
$UCSYDIR
 10
0.0
 20
1.0
 30
0.0
  9
$UCSORTHOREF
  2

  9
$UCSORTHOVIEW
 70
     0
  9
$UCSORGTOP
 10
0.0
 20
0.0
 30
0.0
  9
$UCSORGBOTTOM
 10
0.0
 20
0.0
 30
0.0
  9
$UCSORGLEFT
 10
0.0
 20
0.0
 30
0.0
  9
$UCSORGRIGHT
 10
0.0
 20
0.0
 30
0.0
  9
$UCSORGFRONT
 10
0.0
 20
0.0
 30
0.0
  9
$UCSORGBACK
 10
0.0
 20
0.0
 30
0.0
  9
$PUCSBASE
  2

  9
$PUCSNAME
  2

  9
$PUCSORG
 10
0.0
 20
0.0
 30
0.0
  9
$PUCSXDIR
 10
1.0
 20
0.0
 30
0.0
  9
$PUCSYDIR
 10
0.0
 20
1.0
 30
0.0
  9
$PUCSORTHOREF
  2

  9
$PUCSORTHOVIEW
 70
     0
  9
$PUCSORGTOP
 10
0.0
 20
0.0
 30
0.0
  9
$PUCSORGBOTTOM
 10
0.0
 20
0.0
 30
0.0
  9
$PUCSORGLEFT
 10
0.0
 20
0.0
 30
0.0
  9
$PUCSORGRIGHT
 10
0.0
 20
0.0
 30
0.0
  9
$PUCSORGFRONT
 10
0.0
 20
0.0
 30
0.0
  9
$PUCSORGBACK
 10
0.0
 20
0.0
 30
0.0
  9
$USERI1
 70
     0
  9
$USERI2
 70
     0
  9
$USERI3
 70
     0
  9
$USERI4
 70
     0
  9
$USERI5
 70
     0
  9
$USERR1
 40
0.0
  9
$USERR2
 40
0.0
  9
$USERR3
 40
0.0
  9
$USERR4
 40
0.0
  9
$USERR5
 40
0.0
  9
$WORLDVIEW
 70
     1
  9
$SHADEDGE
 70
     3
  9
$SHADEDIF
 70
    70
  9
$TILEMODE
 70
     1
  9
$MAXACTVP
 70
    64
  9
$PINSBASE
 10
0.0
 20
0.0
 30
0.0
  9
$PLIMCHECK
 70
     0
  9
$PEXTMIN
 10
0.0
 20
0.0
 30
0.0
  9
$PEXTMAX
 10
1000.0
 20
1000.0
 30
0.0
  9
$PLIMMIN
 10
0.0
 20
0.0
  9
$PLIMMAX
 10
100.0
 20
100.0
  9
$UNITMODE
 70
     0
  9
$VISRETAIN
 70
     1
  9
$PLINEGEN
 70
     0
  9
$PSLTSCALE
 70
     1
  9
$TREEDEPTH
 70
  3020
  9
$CMLSTYLE
  2
Standard
  9
$CMLJUST
 70
     0
  9
$CMLSCALE
 40
1.0
  9
$PROXYGRAPHICS
 70
     1
  9
$MEASUREMENT
 70
     0
  9
$CELWEIGHT
370
    -1
  9
$ENDCAPS
280
     0
  9
$JOINSTYLE
280
     0
  9
$LWDISPLAY
290
     0
  9
$INSUNITS
 70
     0
  9
$HYPERLINKBASE
  1

  9
$STYLESHEET
  1

  9
$XEDIT
290
     1
  9
$CEPSNTYPE
380
     0
  9
$PSTYLEMODE
290
     1
  9
$FINGERPRINTGUID
  2
{85A1476C-D099-4B55-847A-E7DB8C343AE4}
  9
$VERSIONGUID
  2
{7E7E62EB-2909-470B-ABE8-6AA699A1FB15}
  9
$EXTNAMES
290
     1
  9
$PSVPSCALE
 40
0.0
  9
$OLESTARTUP
290
     0
  0
ENDSEC
  0
SECTION
  2
CLASSES
  0
CLASS
  1
ACDBDICTIONARYWDFLT
  2
AcDbDictionaryWithDefault
  3
ObjectDBX Classes
 90
        0
280
     0
281
     0
  0
CLASS
  1
MATERIAL
  2
AcDbMaterial
  3
ObjectDBX Classes
 90
     1024
280
     0
281
     0
  0
CLASS
  1
VISUALSTYLE
  2
AcDbVisualStyle
  3
ObjectDBX Classes
 90
     4095
280
     0
281
     0
  0
CLASS
  1
TABLESTYLE
  2
AcDbTableStyle
  3
ObjectDBX Classes
 90
     4095
280
     0
281
     0
  0
CLASS
  1
DICTIONARYVAR
  2
AcDbDictionaryVar
  3
ObjectDBX Classes
 90
        0
280
     0
281
     0
  0
CLASS
  1
ACDBPLACEHOLDER
  2
AcDbPlaceHolder
  3
ObjectDBX Classes
 90
        0
280
     0
281
     0
  0
CLASS
  1
LAYOUT
  2
AcDbLayout
  3
ObjectDBX Classes
 90
        0
280
     0
281
     0
  0
ENDSEC
  0
SECTION
  2
TABLES
  0
TABLE
  2
VPORT
  5
10C
330
0
100
AcDbSymbolTable
 70
     1
  0
VPORT
  5
13E
330
10C
100
AcDbSymbolTableRecord
100
AcDbViewportTableRecord
  2
*ACTIVE
 70
     0
 10
0.0
 20
0.0
 11
1.0
 21
1.0
 12
0.007631140769945
 22
117.0043964136907
 13
0.0
 23
0.0
 14
10.0
 24
10.0
 15
10.0
 25
10.0
 16
0.0
 26
0.0
 36
1.0
 17
0.0
 27
0.0
 37
0.0
 40
251.7890058332763
 41
1.737259343148357
 42
50.0
 43
0.0
 44
0.0
 50
0.0
 51
0.0
 71
     0
 72
   100
 73
     1
 74
     3
 75
     0
 76
     0
 77
     0
 78
     0
281
     0
 65
     1
110
0.0
120
0.0
130
0.0
111
1.0
121
0.0
131
0.0
112
0.0
122
1.0
132
0.0
 79
     0
146
0.0
  0
ENDTAB
  0
TABLE
  2
LTYPE
  5
109
330
0
100
AcDbSymbolTable
 70
     4
  0
LTYPE
  5
12C
330
109
100
AcDbSymbolTableRecord
100
AcDbLinetypeTableRecord
  2
ByBlock
 70
     0
  3

 72
    65
 73
     0
 40
0.0
  0
LTYPE
  5
12D
330
109
100
AcDbSymbolTableRecord
100
AcDbLinetypeTableRecord
  2
ByLayer
 70
     0
  3

 72
    65
 73
     0
 40
0.0
  0
LTYPE
  5
12E
330
109
100
AcDbSymbolTableRecord
100
AcDbLinetypeTableRecord
  2
CONTINUOUS
 70
     0
  3
Solid line
 72
    65
 73
     0
 40
0.0
  0
LTYPE
  5
13F
330
109
100
AcDbSymbolTableRecord
100
AcDbLinetypeTableRecord
  2
CNS_SOLID
 70
     0
  3

 72
    65
 73
     0
 40
0.0
  0
LTYPE
  5
140
330
109
100
AcDbSymbolTableRecord
100
AcDbLinetypeTableRecord
  2
CNS_DASHED
 70
     0
  3

 72
    65
 73
     2
 40
2.0
 49
1.0
 74
     0
 49
-1.0
 74
     0
  0
LTYPE
  5
141
330
109
100
AcDbSymbolTableRecord
100
AcDbLinetypeTableRecord
  2
CNS_CENTER
 70
     0
  3

 72
    65
 73
     4
 40
2.0
 49
0.45
 74
     0
 49
-0.5
 74
     0
 49
0.05
 74
     0
 49
-0.5
 74
     0
  0
ENDTAB
  0
TABLE
  2
LAYER
  5
106
330
0
100
AcDbSymbolTable
 70
     9
  0
LAYER
  5
129
330
106
100
AcDbSymbolTableRecord
100
AcDbLayerTableRecord
  2
0
 70
     0
 62
     7
  6
CONTINUOUS
370
    -3
390
113
  0
LAYER
  5
142
330
106
100
AcDbSymbolTableRecord
100
AcDbLayerTableRecord
  2
VIS
 70
     0
 62
     7
  6
CNS_SOLID
370
    -3
390
113
  0
LAYER
  5
143
330
106
100
AcDbSymbolTableRecord
100
AcDbLayerTableRecord
  2
THIN
 70
     0
 62
     7
  6
CNS_SOLID
370
    -3
390
113
  0
LAYER
  5
144
330
106
100
AcDbSymbolTableRecord
100
AcDbLayerTableRecord
  2
HIDDEN
 70
     0
 62
     7
  6
CNS_DASHED
370
    -3
390
113
  0
LAYER
  5
145
330
106
100
AcDbSymbolTableRecord
100
AcDbLayerTableRecord
  2
CENTER
 70
     0
 62
     7
  6
CNS_CENTER
370
    -3
390
113
  0
LAYER
  5
146
330
106
100
AcDbSymbolTableRecord
100
AcDbLayerTableRecord
  2
CENTER2
 70
     0
 62
     7
  6
CNS_CENTER
370
    -3
390
113
  0
LAYER
  5
147
330
106
100
AcDbSymbolTableRecord
100
AcDbLayerTableRecord
  2
THREAD
 70
     0
 62
     7
  6
CNS_SOLID
370
    -3
390
113
  0
LAYER
  5
148
330
106
100
AcDbSymbolTableRecord
100
AcDbLayerTableRecord
  2
ATTRIB
 70
     0
 62
     7
  6
CNS_SOLID
370
    -3
390
113
  0
LAYER
  5
149
330
106
100
AcDbSymbolTableRecord
100
AcDbLayerTableRecord
  2
HATCH
 70
     0
 62
     7
  6
CNS_SOLID
370
    -3
390
113
  0
ENDTAB
  0
TABLE
  2
STYLE
  5
107
330
0
100
AcDbSymbolTable
 70
     1
  0
STYLE
  5
12A
330
107
100
AcDbSymbolTableRecord
100
AcDbTextStyleTableRecord
  2
STANDARD
 70
     0
 40
0.0
 41
1.0
 50
0.0
 71
     0
 42
2.5
  3
txt
  4

  0
ENDTAB
  0
TABLE
  2
VIEW
  5
10A
330
0
100
AcDbSymbolTable
 70
     3
  0
ENDTAB
  0
TABLE
  2
UCS
  5
10B
330
0
100
AcDbSymbolTable
 70
     0
  0
ENDTAB
  0
TABLE
  2
APPID
  5
10D
330
0
100
AcDbSymbolTable
 70
     1
  0
APPID
  5
12B
330
10D
100
AcDbSymbolTableRecord
100
AcDbRegAppTableRecord
  2
ACAD
 70
     0
  0
ENDTAB
  0
TABLE
  2
DIMSTYLE
  5
10E
330
0
100
AcDbSymbolTable
 70
     1
100
AcDbDimStyleTable
 71
     0
  0
DIMSTYLE
105
14A
330
10E
100
AcDbSymbolTableRecord
100
AcDbDimStyleTableRecord
  2
ISO-25
 70
     0
 41
2.5
 42
0.625
 43
3.75
 44
1.25
 73
     0
 74
     0
 77
     1
 78
     8
140
2.5
141
2.5
143
0.03937007874016
147
0.625
171
     3
172
     1
274
     3
279
     2
284
     8
285
     8
286
     8
340
12A
  0
ENDTAB
  0
TABLE
  2
BLOCK_RECORD
  5
105
330
0
100
AcDbSymbolTable
 70
     2
  0
BLOCK_RECORD
  5
13A
330
105
100
AcDbSymbolTableRecord
100
AcDbBlockTableRecord
  2
*Model_Space
340
13D
  0
BLOCK_RECORD
  5
136
330
105
100
AcDbSymbolTableRecord
100
AcDbBlockTableRecord
  2
*Paper_Space
340
139
  0
BLOCK_RECORD
  5
14C
330
105
100
AcDbSymbolTableRecord
100
AcDbBlockTableRecord
  2
$MODEL_SPACE
340
0
  0
BLOCK_RECORD
  5
14E
330
105
100
AcDbSymbolTableRecord
100
AcDbBlockTableRecord
  2
$PAPER_SPACE
340
0
  0
ENDTAB
  0
ENDSEC
  0
SECTION
  2
BLOCKS
  0
BLOCK
  5
13B
330
13A
100
AcDbEntity
  8
0
100
AcDbBlockBegin
  2
*Model_Space
 70
     0
 10
0.0
 20
0.0
 30
0.0
  3
*Model_Space
  1

  0
ENDBLK
  5
13C
330
13A
100
AcDbEntity
  8
0
100
AcDbBlockEnd
  0
BLOCK
  5
137
330
136
100
AcDbEntity
 67
     1
  8
0
100
AcDbBlockBegin
  2
*Paper_Space
 70
     0
 10
0.0
 20
0.0
 30
0.0
  3
*Paper_Space
  1

  0
ENDBLK
  5
138
330
136
100
AcDbEntity
 67
     1
  8
0
100
AcDbBlockEnd
  0
BLOCK
  5
14D
330
14C
100
AcDbEntity
  8
0
100
AcDbBlockBegin
  2
$MODEL_SPACE
 70
     0
 10
0.0
 20
0.0
 30
0.0
  3
$MODEL_SPACE
  1

  0
ENDBLK
  5
21
330
14C
100
AcDbEntity
  8
0
100
AcDbBlockEnd
  0
BLOCK
  5
14F
330
14E
100
AcDbEntity
  8
0
100
AcDbBlockBegin
  2
$PAPER_SPACE
 70
     0
 10
0.0
 20
0.0
 30
0.0
  3
$PAPER_SPACE
  1

  0
ENDBLK
  5
1D
330
14E
100
AcDbEntity
  8
0
100
AcDbBlockEnd
  0
ENDSEC
  0
SECTION
  2
ENTITIES
  0
LINE
  5
35
330
13A
100
AcDbEntity
  8
HIDDEN
100
AcDbLine
 10
-10.11622963376003
 20
-5.5
 30
0.0
 11
-10.11622963376003
 21
232.3404725357162
 31
0.0
  0
LINE
  5
36
330
13A
100
AcDbEntity
  8
VIS
100
AcDbLine
 10
-10.11622963376003
 20
232.3404725357162
 30
0.0
 11
-10.11622963376003
 21
239.0
 31
0.0
  0
LINE
  5
37
330
13A
100
AcDbEntity
  8
HIDDEN
100
AcDbLine
 10
-10.80677304431244
 20
239.0
 30
0.0
 11
-10.80677304431244
 21
-5.5
 31
0.0
  0
LINE
  5
38
330
13A
100
AcDbEntity
  8
HIDDEN
100
AcDbLine
 10
10.8067730443124
 20
-5.5
 30
0.0
 11
10.8067730443124
 21
239.0
 31
0.0
  0
LINE
  5
39
330
13A
100
AcDbEntity
  8
VIS
100
AcDbLine
 10
10.11622963376001
 20
239.0
 30
0.0
 11
10.11622963376001
 21
232.3404725357171
 31
0.0
  0
LINE
  5
3A
330
13A
100
AcDbEntity
  8
HIDDEN
100
AcDbLine
 10
10.11622963376001
 20
232.3404725357171
 30
0.0
 11
10.11622963376001
 21
-5.5
 31
0.0
  0
LINE
  5
3B
330
13A
100
AcDbEntity
  8
HIDDEN
100
AcDbLine
 10
11.61622963376001
 20
239.0
 30
0.0
 11
11.61622963376001
 21
-5.5
 31
0.0
  0
LINE
  5
3C
330
13A
100
AcDbEntity
  8
HIDDEN
100
AcDbLine
 10
-11.61622963376003
 20
-5.5
 30
0.0
 11
-11.61622963376003
 21
239.0
 31
0.0
  0
LINE
  5
3D
330
13A
100
AcDbEntity
  8
HIDDEN
100
AcDbLine
 10
-10.72830220220421
 20
-5.5
 30
0.0
 11
-10.72830220220421
 21
239.0
 31
0.0
  0
LINE
  5
3E
330
13A
100
AcDbEntity
  8
HIDDEN
100
AcDbLine
 10
-10.30677304431244
 20
-5.5
 30
0.0
 11
-10.30677304431244
 21
239.0
 31
0.0
  0
LINE
  5
3F
330
13A
100
AcDbEntity
  8
HIDDEN
100
AcDbLine
 10
10.3067730443124
 20
-5.5
 30
0.0
 11
10.3067730443124
 21
239.0
 31
0.0
  0
LINE
  5
40
330
13A
100
AcDbEntity
  8
HIDDEN
100
AcDbLine
 10
10.72830220220418
 20
-5.5
 30
0.0
 11
10.72830220220418
 21
239.0
 31
0.0
  0
LINE
  5
41
330
13A
100
AcDbEntity
  8
HIDDEN
100
AcDbLine
 10
10.89142680125668
 20
-5.5
 30
0.0
 11
10.89142680125668
 21
233.3499964188648
 31
0.0
  0
LINE
  5
42
330
13A
100
AcDbEntity
  8
VIS
100
AcDbLine
 10
10.89142680125668
 20
233.3499964188648
 30
0.0
 11
10.89142680125668
 21
239.0
 31
0.0
  0
LINE
  5
43
330
13A
100
AcDbEntity
  8
HIDDEN
100
AcDbLine
 10
12.39999999999998
 20
-5.5
 30
0.0
 11
12.39999999999998
 21
239.0
 31
0.0
  0
LINE
  5
44
330
13A
100
AcDbEntity
  8
HIDDEN
100
AcDbLine
 10
-10.8914268012567
 20
-5.5
 30
0.0
 11
-10.8914268012567
 21
233.3499964188649
 31
0.0
  0
LINE
  5
45
330
13A
100
AcDbEntity
  8
VIS
100
AcDbLine
 10
-10.8914268012567
 20
233.3499964188649
 30
0.0
 11
-10.8914268012567
 21
239.0
 31
0.0
  0
LINE
  5
46
330
13A
100
AcDbEntity
  8
HIDDEN
100
AcDbLine
 10
-12.40000000000001
 20
-5.5
 30
0.0
 11
-12.40000000000001
 21
239.0
 31
0.0
  0
LINE
  5
47
330
13A
100
AcDbEntity
  8
HIDDEN
100
AcDbLine
 10
-12.00332846824922
 20
-5.5
 30
0.0
 11
-12.00332846824922
 21
239.0
 31
0.0
  0
LINE
  5
48
330
13A
100
AcDbEntity
  8
HIDDEN
100
AcDbLine
 10
-12.24526523980496
 20
-5.5
 30
0.0
 11
-12.24526523980496
 21
239.0
 31
0.0
  0
LINE
  5
49
330
13A
100
AcDbEntity
  8
HIDDEN
100
AcDbLine
 10
12.00332836432807
 20
-5.5
 30
0.0
 11
12.00332836432807
 21
239.0
 31
0.0
  0
LINE
  5
4A
330
13A
100
AcDbEntity
  8
HIDDEN
100
AcDbLine
 10
12.24526523980494
 20
-5.5
 30
0.0
 11
12.24526523980494
 21
239.0
 31
0.0
  0
LINE
  5
4B
330
13A
100
AcDbEntity
  8
HIDDEN
100
AcDbLine
 10
8.499999999999987
 20
-5.5
 30
0.0
 11
12.39999999999998
 21
-5.5
 31
0.0
  0
LINE
  5
4C
330
13A
100
AcDbEntity
  8
HIDDEN
100
AcDbLine
 10
-12.4
 20
-5.5
 30
0.0
 11
-8.500000000000012
 21
-5.5
 31
0.0
  0
LINE
  5
4D
330
13A
100
AcDbEntity
  8
HIDDEN
100
AcDbLine
 10
8.499999999999987
 20
-5.5
 30
0.0
 11
8.499999999999987
 21
-8.0
 31
0.0
  0
LINE
  5
4E
330
13A
100
AcDbEntity
  8
HIDDEN
100
AcDbLine
 10
-8.500000000000012
 20
-5.5
 30
0.0
 11
-8.500000000000012
 21
-8.0
 31
0.0
  0
LINE
  5
4F
330
13A
100
AcDbEntity
  8
HIDDEN
100
AcDbLine
 10
8.499999999999987
 20
-6.5
 30
0.0
 11
-8.500000000000012
 21
-6.5
 31
0.0
  0
LINE
  5
50
330
13A
100
AcDbEntity
  8
HIDDEN
100
AcDbLine
 10
8.499999999999987
 20
-6.000000000000004
 30
0.0
 11
-8.500000000000012
 21
-6.000000000000004
 31
0.0
  0
LINE
  5
51
330
13A
100
AcDbEntity
  8
VIS
100
AcDbLine
 10
-9.508996738781283
 20
239.0
 30
0.0
 11
-11.00000000000001
 21
239.0
 31
0.0
  0
LINE
  5
52
330
13A
100
AcDbEntity
  8
HIDDEN
100
AcDbLine
 10
-11.00000000000001
 20
239.0
 30
0.0
 11
-12.40000000000001
 21
239.0
 31
0.0
  0
LINE
  5
53
330
13A
100
AcDbEntity
  8
HIDDEN
100
AcDbLine
 10
12.39999999999998
 20
239.0
 30
0.0
 11
10.99999999999999
 21
239.0
 31
0.0
  0
LINE
  5
54
330
13A
100
AcDbEntity
  8
VIS
100
AcDbLine
 10
10.99999999999999
 20
239.0
 30
0.0
 11
9.508996738781236
 21
239.0
 31
0.0
  0
LINE
  5
55
330
13A
100
AcDbEntity
  8
HIDDEN
100
AcDbLine
 10
-10.24526523980496
 20
-5.5
 30
0.0
 11
-10.24526523980496
 21
239.0
 31
0.0
  0
LINE
  5
56
330
13A
100
AcDbEntity
  8
HIDDEN
100
AcDbLine
 10
10.24526523980494
 20
-5.5
 30
0.0
 11
10.24526523980494
 21
239.0
 31
0.0
  0
ARC
  5
57
330
13A
100
AcDbEntity
  8
VIS
100
AcDbCircle
 10
-9.508996738781206
 20
238.0000000000001
 30
0.0
 40
0.9999999999999364
100
AcDbArc
 50
14.99999999999712
 51
90.0
  0
LINE
  5
58
330
13A
100
AcDbEntity
  8
VIS
100
AcDbLine
 10
-7.198598838310115
 20
233.2411809548975
 30
0.0
 11
-7.401923788646687
 21
234.0
 31
0.0
  0
LINE
  5
59
330
13A
100
AcDbEntity
  8
HIDDEN
100
AcDbLine
 10
-7.401923788646687
 20
234.0
 30
0.0
 11
-7.500000000000021
 21
234.3660254037845
 31
0.0
  0
LINE
  5
5A
330
13A
100
AcDbEntity
  8
VIS
100
AcDbLine
 10
-7.500000000000021
 20
234.3660254037845
 30
0.0
 11
-8.543070912492186
 21
238.2588190451025
 31
0.0
  0
ARC
  5
5B
330
13A
100
AcDbEntity
  8
HIDDEN
100
AcDbCircle
 10
-6.232673012021002
 20
233.5000000000001
 30
0.0
 40
1.000000000000054
100
AcDbArc
 50
198.988555820993
 51
270.0
  0
ARC
  5
5C
330
13A
100
AcDbEntity
  8
VIS
100
AcDbCircle
 10
-6.232673012034628
 20
233.4999999999959
 30
0.0
 40
0.999999999985828
100
AcDbArc
 50
194.999999999976
 51
198.9885558210236
  0
LINE
  5
5D
330
13A
100
AcDbEntity
  8
HIDDEN
100
AcDbLine
 10
6.232673012021027
 20
232.5
 30
0.0
 11
-6.23267301202105
 21
232.5
 31
0.0
  0
ARC
  5
5E
330
13A
100
AcDbEntity
  8
VIS
100
AcDbCircle
 10
6.232673012023627
 20
233.4999999999994
 30
0.0
 40
0.9999999999973248
100
AcDbArc
 50
341.0114441785864
 51
344.9999999999981
  0
ARC
  5
5F
330
13A
100
AcDbEntity
  8
HIDDEN
100
AcDbCircle
 10
6.232673012020963
 20
233.5000000000001
 30
0.0
 40
1.000000000000113
100
AcDbArc
 50
270.0
 51
341.0114441785945
  0
LINE
  5
60
330
13A
100
AcDbEntity
  8
VIS
100
AcDbLine
 10
8.543070912492172
 20
238.2588190451025
 30
0.0
 11
7.512814670838976
 21
234.4138504064378
 31
0.0
  0
LINE
  5
61
330
13A
100
AcDbEntity
  8
HIDDEN
100
AcDbLine
 10
7.512814670838976
 20
234.4138504064378
 30
0.0
 11
7.401923788646669
 21
234.0
 31
0.0
  0
LINE
  5
62
330
13A
100
AcDbEntity
  8
VIS
100
AcDbLine
 10
7.401923788646669
 20
234.0
 30
0.0
 11
7.198598838310093
 21
233.2411809548975
 31
0.0
  0
ARC
  5
63
330
13A
100
AcDbEntity
  8
VIS
100
AcDbCircle
 10
9.508996738781261
 20
238.0
 30
0.0
 40
1.0
100
AcDbArc
 50
90.0
 51
165.0000000000009
  0
ARC
  5
64
330
13A
100
AcDbEntity
  8
VIS
100
AcDbCircle
 10
-0.8000000000000095
 20
27.0
 30
0.0
 40
2.200000000000002
100
AcDbArc
 50
90.0
 51
270.0
  0
LINE
  5
65
330
13A
100
AcDbEntity
  8
VIS
100
AcDbLine
 10
-0.8000000000000095
 20
29.2
 30
0.0
 11
0.7999999999999848
 21
29.2
 31
0.0
  0
ARC
  5
66
330
13A
100
AcDbEntity
  8
VIS
100
AcDbCircle
 10
0.7999999999999848
 20
27.0
 30
0.0
 40
2.200000000000002
100
AcDbArc
 50
270.0
 51
90.0
  0
LINE
  5
67
330
13A
100
AcDbEntity
  8
VIS
100
AcDbLine
 10
0.7999999999999848
 20
24.8
 30
0.0
 11
-0.8000000000000095
 21
24.8
 31
0.0
  0
ARC
  5
68
330
13A
100
AcDbEntity
  8
HIDDEN
100
AcDbCircle
 10
-2.600000000000015
 20
11.0
 30
0.0
 40
2.199999999999999
100
AcDbArc
 50
90.0
 51
270.0
  0
LINE
  5
69
330
13A
100
AcDbEntity
  8
HIDDEN
100
AcDbLine
 10
-2.600000000000016
 20
13.2
 30
0.0
 11
2.59999999999999
 21
13.2
 31
0.0
  0
ARC
  5
6A
330
13A
100
AcDbEntity
  8
HIDDEN
100
AcDbCircle
 10
2.59999999999999
 20
11.0
 30
0.0
 40
2.199999999999999
100
AcDbArc
 50
270.0
 51
90.0
  0
LINE
  5
6B
330
13A
100
AcDbEntity
  8
HIDDEN
100
AcDbLine
 10
2.59999999999999
 20
8.800000000000002
 30
0.0
 11
-2.600000000000014
 21
8.800000000000002
 31
0.0
  0
LINE
  5
6C
330
13A
100
AcDbEntity
  8
HIDDEN
100
AcDbLine
 10
-2.200000000000015
 20
36.0
 30
0.0
 11
-2.200000000000015
 21
41.2
 31
0.0
  0
ARC
  5
6D
330
13A
100
AcDbEntity
  8
HIDDEN
100
AcDbCircle
 10
0.0000000000000413
 20
41.19999999999999
 30
0.0
 40
2.200000000000056
100
AcDbArc
 50
155.8522600829784
 51
180.0
  0
ARC
  5
6E
330
13A
100
AcDbEntity
  8
VIS
100
AcDbCircle
 10
-0.0000000000000113
 20
41.2
 30
0.0
 40
2.2
100
AcDbArc
 50
24.14773991702081
 51
155.8522600829782
  0
ARC
  5
6F
330
13A
100
AcDbEntity
  8
HIDDEN
100
AcDbCircle
 10
-0.0000000000000573
 20
41.2
 30
0.0
 40
2.200000000000045
100
AcDbArc
 50
0.0
 51
24.14773991702031
  0
LINE
  5
70
330
13A
100
AcDbEntity
  8
HIDDEN
100
AcDbLine
 10
2.199999999999988
 20
41.2
 30
0.0
 11
2.199999999999982
 21
36.0
 31
0.0
  0
ARC
  5
71
330
13A
100
AcDbEntity
  8
HIDDEN
100
AcDbCircle
 10
-0.0000000000000204
 20
36.0
 30
0.0
 40
2.199999999999996
100
AcDbArc
 50
180.0
 51
0.0
  0
ARC
  5
72
330
13A
100
AcDbEntity
  8
HIDDEN
100
AcDbCircle
 10
-2.600000000000024
 20
219.0
 30
0.0
 40
2.199999999999989
100
AcDbArc
 50
90.0
 51
270.0
  0
LINE
  5
73
330
13A
100
AcDbEntity
  8
HIDDEN
100
AcDbLine
 10
-2.600000000000036
 20
221.2
 30
0.0
 11
2.599999999999989
 21
221.2
 31
0.0
  0
ARC
  5
74
330
13A
100
AcDbEntity
  8
HIDDEN
100
AcDbCircle
 10
2.6
 20
219.0
 30
0.0
 40
2.199999999999989
100
AcDbArc
 50
270.0
 51
90.0
  0
LINE
  5
75
330
13A
100
AcDbEntity
  8
HIDDEN
100
AcDbLine
 10
2.600000000000011
 20
216.8
 30
0.0
 11
-2.600000000000015
 21
216.8
 31
0.0
  0
CIRCLE
  5
76
330
13A
100
AcDbEntity
  8
HIDDEN
100
AcDbCircle
 10
-0.0000000000000124
 20
210.0
 30
0.0
 40
2.2
  0
CIRCLE
  5
77
330
13A
100
AcDbEntity
  8
HIDDEN
100
AcDbCircle
 10
-0.0000000000000122
 20
195.0
 30
0.0
 40
1.5
  0
LINE
  5
78
330
13A
100
AcDbEntity
  8
CENTER
100
AcDbLine
 10
-4.886374694639612
 20
210.0
 30
0.0
 11
4.886374694639586
 21
210.0
 31
0.0
  0
LINE
  5
79
330
13A
100
AcDbEntity
  8
CENTER
100
AcDbLine
 10
-0.0000000000000124
 20
205.1136253053604
 30
0.0
 11
-0.0000000000000124
 21
214.8863746946396
 31
0.0
  0
LINE
  5
7A
330
13A
100
AcDbEntity
  8
CENTER
100
AcDbLine
 10
-4.186374694639611
 20
195.0
 30
0.0
 11
4.186374694639586
 21
195.0
 31
0.0
  0
LINE
  5
7B
330
13A
100
AcDbEntity
  8
CENTER
100
AcDbLine
 10
-0.0000000000000122
 20
190.8136253053604
 30
0.0
 11
-0.0000000000000122
 21
199.1863746946396
 31
0.0
  0
LINE
  5
7C
330
13A
100
AcDbEntity
  8
CENTER
100
AcDbLine
 10
-7.486374694639612
 20
11.0
 30
0.0
 11
7.486374694639587
 21
11.0
 31
0.0
  0
LINE
  5
7D
330
13A
100
AcDbEntity
  8
CENTER
100
AcDbLine
 10
-2.600000000000016
 20
6.113625305360401
 30
0.0
 11
-2.600000000000016
 21
15.8863746946396
 31
0.0
  0
LINE
  5
7E
330
13A
100
AcDbEntity
  8
CENTER
100
AcDbLine
 10
2.59999999999999
 20
6.113625305360401
 30
0.0
 11
2.59999999999999
 21
15.8863746946396
 31
0.0
  0
LINE
  5
7F
330
13A
100
AcDbEntity
  8
CENTER
100
AcDbLine
 10
-4.886374694639611
 20
36.0
 30
0.0
 11
4.886374694639578
 21
36.0
 31
0.0
  0
LINE
  5
80
330
13A
100
AcDbEntity
  8
CENTER
100
AcDbLine
 10
-0.0000000000000162
 20
31.11362530536039
 30
0.0
 11
-0.0000000000000162
 21
40.88637469463957
 31
0.0
  0
LINE
  5
81
330
13A
100
AcDbEntity
  8
CENTER
100
AcDbLine
 10
-7.486374694639612
 20
219.0
 30
0.0
 11
7.486374694639587
 21
219.0
 31
0.0
  0
LINE
  5
82
330
13A
100
AcDbEntity
  8
CENTER
100
AcDbLine
 10
-2.600000000000034
 20
214.1136253053604
 30
0.0
 11
-2.600000000000034
 21
223.8863746946396
 31
0.0
  0
LINE
  5
83
330
13A
100
AcDbEntity
  8
CENTER
100
AcDbLine
 10
2.600000000000009
 20
214.1136253053604
 30
0.0
 11
2.600000000000009
 21
223.8863746946396
 31
0.0
  0
LINE
  5
84
330
13A
100
AcDbEntity
  8
VIS
100
AcDbLine
 10
24.84999999999999
 20
-8.0
 30
0.0
 11
24.84999999999999
 21
242.0
 31
0.0
  0
LINE
  5
85
330
13A
100
AcDbEntity
  8
HIDDEN
100
AcDbLine
 10
23.34999999999999
 20
-8.0
 30
0.0
 11
23.34999999999999
 21
242.0
 31
0.0
  0
LINE
  5
86
330
13A
100
AcDbEntity
  8
HIDDEN
100
AcDbLine
 10
-23.35000000000001
 20
242.0
 30
0.0
 11
-23.35000000000001
 21
-8.0
 31
0.0
  0
LINE
  5
87
330
13A
100
AcDbEntity
  8
VIS
100
AcDbLine
 10
-24.85000000000002
 20
242.0
 30
0.0
 11
-24.85000000000002
 21
-8.0
 31
0.0
  0
LINE
  5
88
330
13A
100
AcDbEntity
  8
VIS
100
AcDbLine
 10
7.512814670838973
 20
234.0
 30
0.0
 11
7.512814670838973
 21
236.0
 31
0.0
  0
LINE
  5
89
330
13A
100
AcDbEntity
  8
VIS
100
AcDbLine
 10
-7.500000000000018
 20
236.0
 30
0.0
 11
-7.500000000000018
 21
234.0
 31
0.0
  0
LINE
  5
8A
330
13A
100
AcDbEntity
  8
VIS
100
AcDbLine
 10
20.96897547791658
 20
-8.0
 30
0.0
 11
20.96897547791658
 21
242.0
 31
0.0
  0
LINE
  5
8B
330
13A
100
AcDbEntity
  8
VIS
100
AcDbLine
 10
23.30820708635403
 20
-8.0
 30
0.0
 11
23.30820708635403
 21
242.0
 31
0.0
  0
LINE
  5
8C
330
13A
100
AcDbEntity
  8
HIDDEN
100
AcDbLine
 10
23.16763534769493
 20
-8.0
 30
0.0
 11
23.16763534769493
 21
242.0
 31
0.0
  0
LINE
  5
8D
330
13A
100
AcDbEntity
  8
HIDDEN
100
AcDbLine
 10
22.14603671505686
 20
-8.0
 30
0.0
 11
22.14603671505686
 21
242.0
 31
0.0
  0
LINE
  5
8E
330
13A
100
AcDbEntity
  8
HIDDEN
100
AcDbLine
 10
21.94464756555116
 20
-8.0
 30
0.0
 11
21.94464756555116
 21
242.0
 31
0.0
  0
LINE
  5
8F
330
13A
100
AcDbEntity
  8
HIDDEN
100
AcDbLine
 10
-21.94464756555118
 20
-8.0
 30
0.0
 11
-21.94464756555118
 21
242.0
 31
0.0
  0
LINE
  5
90
330
13A
100
AcDbEntity
  8
HIDDEN
100
AcDbLine
 10
-22.14603671505688
 20
-8.0
 30
0.0
 11
-22.14603671505688
 21
242.0
 31
0.0
  0
LINE
  5
91
330
13A
100
AcDbEntity
  8
VIS
100
AcDbLine
 10
-24.85000000000002
 20
-8.0
 30
0.0
 11
24.84999999999999
 21
-8.0
 31
0.0
  0
LINE
  5
92
330
13A
100
AcDbEntity
  8
HIDDEN
100
AcDbLine
 10
-23.16763534769494
 20
-8.0
 30
0.0
 11
-23.16763534769494
 21
242.0
 31
0.0
  0
LINE
  5
93
330
13A
100
AcDbEntity
  8
VIS
100
AcDbLine
 10
-11.00000000000001
 20
242.0
 30
0.0
 11
-24.85000000000002
 21
242.0
 31
0.0
  0
LINE
  5
94
330
13A
100
AcDbEntity
  8
VIS
100
AcDbLine
 10
-20.9689754779166
 20
-8.0
 30
0.0
 11
-20.9689754779166
 21
242.0
 31
0.0
  0
LINE
  5
95
330
13A
100
AcDbEntity
  8
VIS
100
AcDbLine
 10
-23.30820708635407
 20
-8.0
 30
0.0
 11
-23.30820708635407
 21
242.0
 31
0.0
  0
LINE
  5
96
330
13A
100
AcDbEntity
  8
VIS
100
AcDbLine
 10
24.84999999999999
 20
242.0
 30
0.0
 11
10.99999999999999
 21
242.0
 31
0.0
  0
LINE
  5
97
330
13A
100
AcDbEntity
  8
HIDDEN
100
AcDbLine
 10
-21.20016618999642
 20
-8.0
 30
0.0
 11
-21.20016618999642
 21
242.0
 31
0.0
  0
LINE
  5
98
330
13A
100
AcDbEntity
  8
HIDDEN
100
AcDbLine
 10
21.2001661899964
 20
-8.0
 30
0.0
 11
21.2001661899964
 21
242.0
 31
0.0
  0
LINE
  5
99
330
13A
100
AcDbEntity
  8
VIS
100
AcDbLine
 10
-11.00000000000001
 20
234.0
 30
0.0
 11
-11.00000000000001
 21
242.0
 31
0.0
  0
ARC
  5
9A
330
13A
100
AcDbEntity
  8
VIS
100
AcDbCircle
 10
8.999999999999987
 20
234.0
 30
0.0
 40
2.0
100
AcDbArc
 50
180.0
 51
0.0
  0
LINE
  5
9B
330
13A
100
AcDbEntity
  8
VIS
100
AcDbLine
 10
10.99999999999999
 20
242.0
 30
0.0
 11
10.99999999999999
 21
234.0
 31
0.0
  0
ARC
  5
9C
330
13A
100
AcDbEntity
  8
VIS
100
AcDbCircle
 10
-9.000000000000008
 20
234.0
 30
0.0
 40
2.000000000000002
100
AcDbArc
 50
180.0
 51
0.0
  0
CIRCLE
  5
9D
330
13A
100
AcDbEntity
  8
VIS
100
AcDbCircle
 10
-0.0000000000000124
 20
224.0
 30
0.0
 40
2.299999999999999
  0
LINE
  5
9E
330
13A
100
AcDbEntity
  8
VIS
100
AcDbLine
 10
18.99999999999999
 20
-3.999999999999993
 30
0.0
 11
13.99999999999999
 21
-3.999999999999993
 31
0.0
  0
LINE
  5
9F
330
13A
100
AcDbEntity
  8
VIS
100
AcDbLine
 10
13.99999999999999
 20
-3.999999999999993
 30
0.0
 11
13.99999999999999
 21
-0.0000000000000071
 31
0.0
  0
LINE
  5
A0
330
13A
100
AcDbEntity
  8
VIS
100
AcDbLine
 10
13.99999999999999
 20
-0.0000000000000067
 30
0.0
 11
18.99999999999999
 21
0.0000000000000004
 31
0.0
  0
LINE
  5
A1
330
13A
100
AcDbEntity
  8
VIS
100
AcDbLine
 10
18.99999999999999
 20
0.0
 30
0.0
 11
18.99999999999999
 21
-3.999999999999993
 31
0.0
  0
LINE
  5
A2
330
13A
100
AcDbEntity
  8
VIS
100
AcDbLine
 10
-14.00000000000001
 20
-3.999999999999978
 30
0.0
 11
-19.00000000000001
 21
-3.999999999999977
 31
0.0
  0
LINE
  5
A3
330
13A
100
AcDbEntity
  8
VIS
100
AcDbLine
 10
-19.00000000000001
 20
-3.999999999999977
 30
0.0
 11
-19.00000000000001
 21
0.0
 31
0.0
  0
LINE
  5
A4
330
13A
100
AcDbEntity
  8
VIS
100
AcDbLine
 10
-19.00000000000001
 20
-0.0000000000000001
 30
0.0
 11
-14.00000000000001
 21
-0.0000000000000214
 31
0.0
  0
LINE
  5
A5
330
13A
100
AcDbEntity
  8
VIS
100
AcDbLine
 10
-14.00000000000001
 20
-0.0000000000000213
 30
0.0
 11
-14.00000000000001
 21
-3.999999999999978
 31
0.0
  0
LINE
  5
A6
330
13A
100
AcDbEntity
  8
HIDDEN
100
AcDbLine
 10
-19.94817661335594
 20
-4.0
 30
0.0
 11
-19.94817661335594
 21
0.0
 31
0.0
  0
LINE
  5
A7
330
13A
100
AcDbEntity
  8
HIDDEN
100
AcDbLine
 10
-20.63873633089834
 20
-4.0
 30
0.0
 11
-20.63873633089834
 21
0.0
 31
0.0
  0
LINE
  5
A8
330
13A
100
AcDbEntity
  8
HIDDEN
100
AcDbLine
 10
-22.00661858866106
 20
-4.0
 30
0.0
 11
-19.00000000000001
 21
-4.0
 31
0.0
  0
LINE
  5
A9
330
13A
100
AcDbEntity
  8
HIDDEN
100
AcDbLine
 10
-22.00661858866106
 20
-4.0
 30
0.0
 11
-22.00661858866106
 21
0.0
 31
0.0
  0
LINE
  5
AA
330
13A
100
AcDbEntity
  8
HIDDEN
100
AcDbLine
 10
-19.00000000000001
 20
0.0
 30
0.0
 11
-22.00661858866106
 21
0.0
 31
0.0
  0
LINE
  5
AB
330
13A
100
AcDbEntity
  8
HIDDEN
100
AcDbLine
 10
-21.31605887111866
 20
-4.0
 30
0.0
 11
-21.31605887111866
 21
0.0
 31
0.0
  0
LINE
  5
AC
330
13A
100
AcDbEntity
  8
HIDDEN
100
AcDbLine
 10
-21.00000000000001
 20
0.0
 30
0.0
 11
-21.00000000000001
 21
-4.0
 31
0.0
  0
LINE
  5
AD
330
13A
100
AcDbEntity
  8
HIDDEN
100
AcDbLine
 10
20.99999999999999
 20
-4.0
 30
0.0
 11
20.99999999999999
 21
0.0
 31
0.0
  0
LINE
  5
AE
330
13A
100
AcDbEntity
  8
HIDDEN
100
AcDbLine
 10
18.99999999999999
 20
-4.0
 30
0.0
 11
22.00661858866105
 21
-4.0
 31
0.0
  0
LINE
  5
AF
330
13A
100
AcDbEntity
  8
HIDDEN
100
AcDbLine
 10
21.31605887111865
 20
-4.0
 30
0.0
 11
21.31605887111865
 21
0.0
 31
0.0
  0
LINE
  5
B0
330
13A
100
AcDbEntity
  8
HIDDEN
100
AcDbLine
 10
22.00661858866105
 20
0.0
 30
0.0
 11
18.99999999999999
 21
0.0
 31
0.0
  0
LINE
  5
B1
330
13A
100
AcDbEntity
  8
HIDDEN
100
AcDbLine
 10
22.00661858866105
 20
-4.0
 30
0.0
 11
22.00661858866105
 21
0.0
 31
0.0
  0
LINE
  5
B2
330
13A
100
AcDbEntity
  8
HIDDEN
100
AcDbLine
 10
20.63873633089832
 20
-4.0
 30
0.0
 11
20.63873633089832
 21
0.0
 31
0.0
  0
LINE
  5
B3
330
13A
100
AcDbEntity
  8
HIDDEN
100
AcDbLine
 10
19.94817661335593
 20
-4.0
 30
0.0
 11
19.94817661335593
 21
0.0
 31
0.0
  0
LINE
  5
B4
330
13A
100
AcDbEntity
  8
HIDDEN
100
AcDbLine
 10
-7.000000000000007
 20
234.0
 30
0.0
 11
6.999999999999986
 21
234.0
 31
0.0
  0
LINE
  5
B5
330
13A
100
AcDbEntity
  8
VIS
100
AcDbLine
 10
6.999999999999983
 20
234.0
 30
0.0
 11
6.999999999999983
 21
236.0
 31
0.0
  0
LINE
  5
B6
330
13A
100
AcDbEntity
  8
VIS
100
AcDbLine
 10
6.999999999999985
 20
234.0
 30
0.0
 11
7.512814670838973
 21
234.0
 31
0.0
  0
LINE
  5
B7
330
13A
100
AcDbEntity
  8
HIDDEN
100
AcDbLine
 10
6.49999999999996
 20
234.0
 30
0.0
 11
6.49999999999996
 21
236.0
 31
0.0
  0
LINE
  5
B8
330
13A
100
AcDbEntity
  8
VIS
100
AcDbLine
 10
-7.500000000000017
 20
234.0
 30
0.0
 11
-7.000000000000013
 21
234.0
 31
0.0
  0
LINE
  5
B9
330
13A
100
AcDbEntity
  8
VIS
100
AcDbLine
 10
7.512814670838973
 20
236.0
 30
0.0
 11
-7.500000000000017
 21
236.0
 31
0.0
  0
LINE
  5
BA
330
13A
100
AcDbEntity
  8
VIS
100
AcDbLine
 10
-7.000000000000016
 20
234.0
 30
0.0
 11
-7.000000000000016
 21
236.0
 31
0.0
  0
CIRCLE
  5
BB
330
13A
100
AcDbEntity
  8
VIS
100
AcDbCircle
 10
-0.0000000000000124
 20
0.0000000000000001
 30
0.0
 40
2.299999999999999
  0
CIRCLE
  5
BC
330
13A
100
AcDbEntity
  8
VIS
100
AcDbCircle
 10
-0.0000000000000124
 20
27.0
 30
0.0
 40
3.2
  0
CIRCLE
  5
BD
330
13A
100
AcDbEntity
  8
VIS
100
AcDbCircle
 10
-0.0000000000000124
 20
43.0
 30
0.0
 40
2.2
  0
ARC
  5
BE
330
13A
100
AcDbEntity
  8
VIS
100
AcDbCircle
 10
-0.000000000000012
 20
55.5
 30
0.0
 40
2.200000000000001
100
AcDbArc
 50
0.0
 51
180.0
  0
LINE
  5
BF
330
13A
100
AcDbEntity
  8
VIS
100
AcDbLine
 10
2.199999999999989
 20
55.5
 30
0.0
 11
2.199999999999997
 21
51.5
 31
0.0
  0
ARC
  5
C0
330
13A
100
AcDbEntity
  8
VIS
100
AcDbCircle
 10
-0.0000000000000053
 20
51.50000000000001
 30
0.0
 40
2.200000000000009
100
AcDbArc
 50
180.0
 51
0.0
  0
LINE
  5
C1
330
13A
100
AcDbEntity
  8
VIS
100
AcDbLine
 10
-2.200000000000015
 20
51.50000000000001
 30
0.0
 11
-2.200000000000015
 21
55.5
 31
0.0
  0
CIRCLE
  5
C2
330
13A
100
AcDbEntity
  8
VIS
100
AcDbCircle
 10
-0.0000000000000124
 20
91.0
 30
0.0
 40
3.2
  0
CIRCLE
  5
C3
330
13A
100
AcDbEntity
  8
VIS
100
AcDbCircle
 10
-0.0000000000000124
 20
155.0
 30
0.0
 40
3.2
  0
CIRCLE
  5
C4
330
13A
100
AcDbEntity
  8
VIS
100
AcDbCircle
 10
-0.0000000000000124
 20
146.0
 30
0.0
 40
2.2
  0
ARC
  5
C5
330
13A
100
AcDbEntity
  8
VIS
100
AcDbCircle
 10
-0.0000000000000122
 20
168.25
 30
0.0
 40
2.2
100
AcDbArc
 50
0.0
 51
180.0
  0
LINE
  5
C6
330
13A
100
AcDbEntity
  8
VIS
100
AcDbLine
 10
2.199999999999988
 20
168.25
 30
0.0
 11
2.199999999999988
 21
164.25
 31
0.0
  0
ARC
  5
C7
330
13A
100
AcDbEntity
  8
VIS
100
AcDbCircle
 10
-0.0000000000000078
 20
164.25
 30
0.0
 40
2.200000000000009
100
AcDbArc
 50
180.0
 51
0.0
  0
LINE
  5
C8
330
13A
100
AcDbEntity
  8
VIS
100
AcDbLine
 10
-2.200000000000015
 20
164.25
 30
0.0
 11
-2.200000000000013
 21
168.25
 31
0.0
  0
CIRCLE
  5
C9
330
13A
100
AcDbEntity
  8
VIS
100
AcDbCircle
 10
-0.0000000000000124
 20
18.0
 30
0.0
 40
2.2
  0
LINE
  5
CA
330
13A
100
AcDbEntity
  8
CENTER
100
AcDbLine
 10
-4.986374694639611
 20
224.0
 30
0.0
 11
4.986374694639586
 21
224.0
 31
0.0
  0
LINE
  5
CB
330
13A
100
AcDbEntity
  8
CENTER
100
AcDbLine
 10
-0.0000000000000124
 20
219.0136253053604
 30
0.0
 11
-0.0000000000000124
 21
228.9863746946396
 31
0.0
  0
LINE
  5
CC
330
13A
100
AcDbEntity
  8
CENTER
100
AcDbLine
 10
-4.986374694639611
 20
0.0000000000000001
 30
0.0
 11
4.986374694639586
 21
0.0000000000000001
 31
0.0
  0
LINE
  5
CD
330
13A
100
AcDbEntity
  8
CENTER
100
AcDbLine
 10
-0.0000000000000124
 20
-4.986374694639598
 30
0.0
 11
-0.0000000000000124
 21
4.986374694639598
 31
0.0
  0
LINE
  5
CE
330
13A
100
AcDbEntity
  8
CENTER
100
AcDbLine
 10
-5.886374694639612
 20
27.0
 30
0.0
 11
5.886374694639587
 21
27.0
 31
0.0
  0
LINE
  5
CF
330
13A
100
AcDbEntity
  8
CENTER
100
AcDbLine
 10
-0.0000000000000124
 20
13.1136253053604
 30
0.0
 11
-0.0000000000000124
 21
32.8863746946396
 31
0.0
  0
LINE
  5
D0
330
13A
100
AcDbEntity
  8
CENTER
100
AcDbLine
 10
-4.886374694639612
 20
43.0
 30
0.0
 11
4.886374694639586
 21
43.0
 31
0.0
  0
LINE
  5
D1
330
13A
100
AcDbEntity
  8
CENTER
100
AcDbLine
 10
-0.0000000000000124
 20
38.1136253053604
 30
0.0
 11
-0.0000000000000124
 21
47.88637469463959
 31
0.0
  0
LINE
  5
D2
330
13A
100
AcDbEntity
  8
CENTER
100
AcDbLine
 10
-5.886374694639612
 20
91.0
 30
0.0
 11
5.886374694639587
 21
91.0
 31
0.0
  0
LINE
  5
D3
330
13A
100
AcDbEntity
  8
CENTER
100
AcDbLine
 10
-0.0000000000000124
 20
85.1136253053604
 30
0.0
 11
-0.0000000000000124
 21
96.88637469463959
 31
0.0
  0
LINE
  5
D4
330
13A
100
AcDbEntity
  8
CENTER
100
AcDbLine
 10
-5.886374694639612
 20
155.0
 30
0.0
 11
5.886374694639587
 21
155.0
 31
0.0
  0
LINE
  5
D5
330
13A
100
AcDbEntity
  8
CENTER
100
AcDbLine
 10
-0.0000000000000124
 20
141.1136253053604
 30
0.0
 11
-0.0000000000000124
 21
160.8863746946395
 31
0.0
  0
LINE
  5
D6
330
13A
100
AcDbEntity
  8
CENTER
100
AcDbLine
 10
-4.886374694639612
 20
146.0
 30
0.0
 11
4.886374694639586
 21
146.0
 31
0.0
  0
LINE
  5
D7
330
13A
100
AcDbEntity
  8
CENTER
100
AcDbLine
 10
-4.886374694639612
 20
18.0
 30
0.0
 11
4.886374694639586
 21
18.0
 31
0.0
  0
LINE
  5
D8
330
13A
100
AcDbEntity
  8
CENTER
100
AcDbLine
 10
4.313625305360388
 20
234.0
 30
0.0
 11
13.68637469463959
 21
234.0
 31
0.0
  0
LINE
  5
D9
330
13A
100
AcDbEntity
  8
CENTER
100
AcDbLine
 10
8.999999999999987
 20
229.3136253053604
 30
0.0
 11
8.999999999999987
 21
238.6863746946396
 31
0.0
  0
LINE
  5
DA
330
13A
100
AcDbEntity
  8
CENTER
100
AcDbLine
 10
-13.68637469463961
 20
234.0
 30
0.0
 11
-4.313625305360409
 21
234.0
 31
0.0
  0
LINE
  5
DB
330
13A
100
AcDbEntity
  8
CENTER
100
AcDbLine
 10
-9.000000000000008
 20
229.3136253053604
 30
0.0
 11
-9.000000000000008
 21
238.6863746946396
 31
0.0
  0
LINE
  5
DC
330
13A
100
AcDbEntity
  8
CENTER
100
AcDbLine
 10
-4.886374694639613
 20
55.5
 30
0.0
 11
4.886374694639588
 21
55.5
 31
0.0
  0
LINE
  5
DD
330
13A
100
AcDbEntity
  8
CENTER
100
AcDbLine
 10
-0.0000000000000124
 20
50.6136253053604
 30
0.0
 11
-0.0000000000000124
 21
60.3863746946396
 31
0.0
  0
LINE
  5
DE
330
13A
100
AcDbEntity
  8
HIDDEN
100
AcDbLine
 10
12.00332846824921
 20
-5.5
 30
0.0
 11
12.00332846824921
 21
239.0
 31
0.0
  0
LINE
  5
DF
330
13A
100
AcDbEntity
  8
HIDDEN
100
AcDbLine
 10
-12.00332836432808
 20
-5.5
 30
0.0
 11
-12.00332836432808
 21
239.0
 31
0.0
  0
LINE
  5
E0
330
13A
100
AcDbEntity
  8
VIS
100
AcDbLine
 10
-7.512814670838987
 20
236.0
 30
0.0
 11
-7.512814670838987
 21
234.4138504064378
 31
0.0
  0
LINE
  5
E1
330
13A
100
AcDbEntity
  8
HIDDEN
100
AcDbLine
 10
-7.512814670838987
 20
234.4138504064378
 30
0.0
 11
-7.512814670838987
 21
234.0
 31
0.0
  0
LINE
  5
E2
330
13A
100
AcDbEntity
  8
HIDDEN
100
AcDbLine
 10
7.500000000000006
 20
234.0
 30
0.0
 11
7.500000000000006
 21
236.0
 31
0.0
  0
LINE
  5
E3
330
13A
100
AcDbEntity
  8
VIS
100
AcDbLine
 10
23.34999999999977
 20
-8.0
 30
0.0
 11
24.85000000000001
 21
-8.0
 31
0.0
  0
LINE
  5
E4
330
13A
100
AcDbEntity
  8
HIDDEN
100
AcDbLine
 10
24.85000000000001
 20
242.0
 30
0.0
 11
23.34999999999977
 21
242.0
 31
0.0
  0
LINE
  5
E5
330
13A
100
AcDbEntity
  8
HIDDEN
100
AcDbLine
 10
-7.512814670838987
 20
234.0
 30
0.0
 11
-7.000000000000035
 21
234.0
 31
0.0
  0
LINE
  5
E6
330
13A
100
AcDbEntity
  8
VIS
100
AcDbLine
 10
-7.500000000000103
 20
236.0
 30
0.0
 11
-7.512814670838987
 21
236.0
 31
0.0
  0
LINE
  5
E7
330
13A
100
AcDbEntity
  8
HIDDEN
100
AcDbLine
 10
-6.499999999999972
 20
234.0
 30
0.0
 11
-6.499999999999972
 21
236.0
 31
0.0
  0
POINT
  5
E8
330
13A
100
AcDbEntity
  8
VIS
100
AcDbPoint
 10
0.0
 20
-8.0
 30
0.0
210
0.0
220
1.0
230
0.0
  0
POINT
  5
E9
330
13A
100
AcDbEntity
  8
VIS
100
AcDbPoint
 10
0.0000000000000062
 20
-8.0
 30
100.5
210
0.0
220
1.0
230
0.0
  0
POINT
  5
EA
330
13A
100
AcDbEntity
  8
VIS
100
AcDbPoint
 10
0.0
 20
-8.0
 30
0.0
210
0.0
220
1.0
230
0.0
  0
POINT
  5
EB
330
13A
100
AcDbEntity
  8
VIS
100
AcDbPoint
 10
0.0
 20
-8.0
 30
201.0
210
0.0
220
1.0
230
0.0
  0
POINT
  5
EC
330
13A
100
AcDbEntity
  8
VIS
100
AcDbPoint
 10
-0.0000000000000062
 20
-8.0
 30
100.5
210
0.0
220
1.0
230
0.0
  0
POINT
  5
ED
330
13A
100
AcDbEntity
  8
VIS
100
AcDbPoint
 10
0.0
 20
-8.0
 30
201.0
210
0.0
220
1.0
230
0.0
  0
ATTDEF
  5
F5
330
13A
100
AcDbEntity
  8
0
100
AcDbText
 10
0.0
 20
0.0
 30
0.0
 40
1.0
  1
250
100
AcDbAttributeDefinition
  3

  2
L
 70
     9
  0
ENDSEC
  0
SECTION
  2
OBJECTS
  0
DICTIONARY
  5
110
330
0
100
AcDbDictionary
281
     1
  3
ACAD_COLOR
350
133
  3
ACAD_GROUP
350
111
  3
ACAD_LAYOUT
350
132
  3
ACAD_MATERIAL
350
114
  3
ACAD_MLINESTYLE
350
12F
  3
ACAD_PLOTSETTINGS
350
131
  3
ACAD_PLOTSTYLENAME
350
112
  3
ACAD_TABLESTYLE
350
134
  3
ACAD_VISUALSTYLE
350
118
  3
AcDbVariableDictionary
350
154
  3
DWGPROPS
350
159
  0
DICTIONARY
  5
133
102
{ACAD_REACTORS
330
110
102
}
330
110
100
AcDbDictionary
281
     1
  0
DICTIONARY
  5
111
102
{ACAD_REACTORS
330
110
102
}
330
110
100
AcDbDictionary
281
     1
  0
DICTIONARY
  5
132
102
{ACAD_REACTORS
330
110
102
}
330
110
100
AcDbDictionary
281
     1
  3
Layout1
350
139
  3
Model
350
13D
  0
DICTIONARY
  5
114
102
{ACAD_REACTORS
330
110
102
}
330
110
100
AcDbDictionary
281
     1
  3
ByBlock
350
116
  3
ByLayer
350
115
  3
Global
350
117
  0
DICTIONARY
  5
12F
102
{ACAD_REACTORS
330
110
102
}
330
110
100
AcDbDictionary
281
     1
  3
Standard
350
130
  0
DICTIONARY
  5
131
102
{ACAD_REACTORS
330
110
102
}
330
110
100
AcDbDictionary
281
     1
  0
ACDBDICTIONARYWDFLT
  5
112
102
{ACAD_REACTORS
330
110
102
}
330
110
100
AcDbDictionary
281
     1
  3
Normal
350
113
100
AcDbDictionaryWithDefault
340
113
  0
DICTIONARY
  5
134
102
{ACAD_REACTORS
330
110
102
}
330
110
100
AcDbDictionary
281
     1
  3
Standard
350
135
  0
DICTIONARY
  5
118
102
{ACAD_REACTORS
330
110
102
}
330
110
100
AcDbDictionary
281
     1
  3
2dWireframe
350
11E
  3
3D Hidden
350
120
  3
3dWireframe
350
11F
  3
Basic
350
11D
  3
Brighten
350
124
  3
ColorChange
350
128
  3
Conceptual
350
121
  3
Dim
350
123
  3
Facepattern
350
127
  3
Flat
350
119
  3
FlatWithEdges
350
11A
  3
Gouraud
350
11B
  3
GouraudWithEdges
350
11C
  3
Linepattern
350
126
  3
Realistic
350
122
  3
Thicken
350
125
  0
DICTIONARY
  5
154
102
{ACAD_REACTORS
330
110
102
}
330
110
100
AcDbDictionary
281
     1
  3
CTABLESTYLE
350
155
  3
DIMASSOC
350
158
  3
INDEXCTL
350
157
  3
SORTENTS
350
156
  0
XRECORD
  5
159
102
{ACAD_REACTORS
330
110
102
}
330
110
100
AcDbXrecord
280
     1
  1
DWGPROPS COOKIE
  2

  3

  4

  6

  7

  8
Admin
  9

300
=
301
=
302
=
303
=
304
=
305
=
306
=
307
=
308
=
309
=
 40
0.0024106828703704
 41
2454456.618414352
 42
2454456.633051747
  1

 90
        0
  0
LAYOUT
  5
139
102
{ACAD_XDICTIONARY
360
162
102
}
102
{ACAD_REACTORS
330
132
102
}
330
132
100
AcDbPlotSettings
  1

  2
HP LaserJet 5000 Series PCL6
  4

  6

 40
0.0
 41
0.0
 42
0.0
 43
0.0
 44
0.0
 45
0.0
 46
0.0
 47
0.0
 48
0.0
 49
0.0
140
0.0
141
0.0
142
1.0
143
1.0
 70
   688
 72
     0
 73
     0
 74
     5
  7

 75
    16
147
1.0
148
0.0
149
0.0
100
AcDbLayout
  1
Layout1
 70
     1
 71
     1
 10
0.0
 20
0.0
 11
100.0
 21
100.0
 12
0.0
 22
0.0
 32
0.0
 14
0.0
 24
0.0
 34
0.0
 15
1000.0
 25
1000.0
 35
0.0
146
0.0
 13
0.0
 23
0.0
 33
0.0
 16
1.0
 26
0.0
 36
0.0
 17
0.0
 27
1.0
 37
0.0
 76
     0
330
136
  0
LAYOUT
  5
13D
102
{ACAD_XDICTIONARY
360
164
102
}
102
{ACAD_REACTORS
330
132
102
}
330
132
100
AcDbPlotSettings
  1

  2
HP LaserJet 5000 Series PCL6
  4

  6

 40
0.0
 41
0.0
 42
0.0
 43
0.0
 44
0.0
 45
0.0
 46
0.0
 47
0.0
 48
0.0
 49
0.0
140
0.0
141
0.0
142
1.0
143
1.0
 70
  1712
 72
     0
 73
     0
 74
     0
  7

 75
     0
147
1.0
148
0.0
149
0.0
100
AcDbLayout
  1
Model
 70
     1
 71
     0
 10
0.0
 20
0.0
 11
12.0
 21
9.0
 12
0.0
 22
0.0
 32
0.0
 14
0.0
 24
0.0
 34
0.0
 15
0.0
 25
0.0
 35
0.0
146
0.0
 13
0.0
 23
0.0
 33
0.0
 16
1.0
 26
0.0
 36
0.0
 17
0.0
 27
1.0
 37
0.0
 76
     0
330
13A
331
13E
  0
MATERIAL
  5
116
102
{ACAD_XDICTIONARY
360
15C
102
}
102
{ACAD_REACTORS
330
114
102
}
330
114
100
AcDbMaterial
  1
ByBlock
  0
MATERIAL
  5
115
102
{ACAD_XDICTIONARY
360
15A
102
}
102
{ACAD_REACTORS
330
114
102
}
330
114
100
AcDbMaterial
  1
ByLayer
  0
MATERIAL
  5
117
102
{ACAD_XDICTIONARY
360
15E
102
}
102
{ACAD_REACTORS
330
114
102
}
330
114
100
AcDbMaterial
  1
Global
  0
MLINESTYLE
  5
130
102
{ACAD_REACTORS
330
12F
102
}
330
12F
100
AcDbMlineStyle
  2
STANDARD
 70
     0
  3

 62
   256
 51
90.0
 52
90.0
 71
     2
 49
0.5
 62
   256
  6
BYLAYER
 49
-0.5
 62
   256
  6
BYLAYER
  0
ACDBPLACEHOLDER
  5
113
102
{ACAD_REACTORS
330
112
102
}
330
112
  0
TABLESTYLE
  5
135
102
{ACAD_XDICTIONARY
360
160
102
}
102
{ACAD_REACTORS
330
134
102
}
330
134
100
AcDbTableStyle
  3
Standard
 70
     0
 71
     0
 40
0.06
 41
0.06
280
     0
281
     0
  7
STANDARD
140
0.18
170
     2
 62
     0
 63
     7
283
     0
274
    -2
284
     1
 64
     0
275
    -2
285
     1
 65
     0
276
    -2
286
     1
 66
     0
277
    -2
287
     1
 67
     0
278
    -2
288
     1
 68
     0
279
    -2
289
     1
 69
     0
  7
STANDARD
140
0.25
170
     5
 62
     0
 63
     7
283
     0
274
    -2
284
     1
 64
     0
275
    -2
285
     1
 65
     0
276
    -2
286
     1
 66
     0
277
    -2
287
     1
 67
     0
278
    -2
288
     1
 68
     0
279
    -2
289
     1
 69
     0
  7
STANDARD
140
0.18
170
     5
 62
     0
 63
     7
283
     0
274
    -2
284
     1
 64
     0
275
    -2
285
     1
 65
     0
276
    -2
286
     1
 66
     0
277
    -2
287
     1
 67
     0
278
    -2
288
     1
 68
     0
279
    -2
289
     1
 69
     0
  0
VISUALSTYLE
  5
11E
102
{ACAD_REACTORS
330
118
102
}
330
118
100
AcDbVisualStyle
  2
2dWireframe
 70
     4
 71
     0
 72
     2
 73
     0
 90
        0
 40
-0.6
 41
-30.0
 62
     5
 63
     7
 74
     1
 91
        4
 64
     7
 65
   257
 75
     1
175
     1
 42
1.0
 92
        0
 66
   257
 43
1.0
 76
     1
 77
     6
 78
     2
 67
     7
 79
     5
170
     0
171
     0
290
     0
174
     0
 93
        1
 44
0.0
173
     0
291
     0
 45
0.0
1001
ACAD
1000
AcDbSavedByObjectVersion
1070
     0
  0
VISUALSTYLE
  5
120
102
{ACAD_REACTORS
330
118
102
}
330
118
100
AcDbVisualStyle
  2
3D Hidden
 70
     6
 71
     1
 72
     2
 73
     2
 90
        0
 40
-0.6
 41
-30.0
 62
     5
 63
     7
 74
     2
 91
        2
 64
     7
 65
   257
 75
     2
175
     1
 42
40.0
 92
        0
 66
   257
 43
1.0
 76
     1
 77
     6
 78
     2
 67
     7
 79
     3
170
     0
171
     0
290
     0
174
     0
 93
        1
 44
0.0
173
     0
291
     0
 45
0.0
1001
ACAD
1000
AcDbSavedByObjectVersion
1070
     0
  0
VISUALSTYLE
  5
11F
102
{ACAD_REACTORS
330
118
102
}
330
118
100
AcDbVisualStyle
  2
3dWireframe
 70
     5
 71
     0
 72
     2
 73
     0
 90
        0
 40
-0.6
 41
-30.0
 62
     5
 63
     7
 74
     1
 91
        4
 64
     7
 65
   257
 75
     1
175
     1
 42
1.0
 92
        0
 66
   257
 43
1.0
 76
     1
 77
     6
 78
     2
 67
     7
 79
     5
170
     0
171
     0
290
     0
174
     0
 93
        1
 44
0.0
173
     0
291
     0
 45
0.0
1001
ACAD
1000
AcDbSavedByObjectVersion
1070
     0
  0
VISUALSTYLE
  5
11D
102
{ACAD_REACTORS
330
118
102
}
330
118
100
AcDbVisualStyle
  2
Basic
 70
     7
 71
     1
 72
     0
 73
     1
 90
        0
 40
-0.6
 41
-30.0
 62
     5
 63
     7
 74
     0
 91
        4
 64
     7
 65
   257
 75
     1
175
     1
 42
1.0
 92
        8
 66
     7
 43
1.0
 76
     1
 77
     6
 78
     2
 67
     7
 79
     5
170
     0
171
     0
290
     0
174
     0
 93
        1
 44
0.0
173
     0
291
     1
 45
0.0
1001
ACAD
1000
AcDbSavedByObjectVersion
1070
     0
  0
VISUALSTYLE
  5
124
102
{ACAD_REACTORS
330
118
102
}
330
118
100
AcDbVisualStyle
  2
Brighten
 70
    12
 71
     2
 72
     2
 73
     0
 90
        0
 40
-0.6
 41
-30.0
 62
     5
 63
     7
 74
     1
 91
        4
 64
     7
 65
   257
 75
     1
175
     1
 42
1.0
 92
        8
 66
     7
 43
1.0
 76
     1
 77
     6
 78
     2
 67
     7
 79
     5
170
     0
171
     0
290
     0
174
     0
 93
        1
 44
50.0
173
     0
291
     1
 45
0.0
1001
ACAD
1000
AcDbSavedByObjectVersion
1070
     0
  0
VISUALSTYLE
  5
128
102
{ACAD_REACTORS
330
118
102
}
330
118
100
AcDbVisualStyle
  2
ColorChange
 70
    16
 71
     2
 72
     2
 73
     3
 90
        0
 40
-0.6
 41
-30.0
 62
     5
 63
     8
 74
     1
 91
        4
 64
     7
 65
   257
 75
     1
175
     1
 42
1.0
 92
        8
 66
     8
 43
1.0
 76
     1
 77
     6
 78
     2
 67
     7
 79
     5
170
     0
171
     0
290
     0
174
     0
 93
        1
 44
0.0
173
     0
291
     1
 45
0.0
1001
ACAD
1000
AcDbSavedByObjectVersion
1070
     0
  0
VISUALSTYLE
  5
121
102
{ACAD_REACTORS
330
118
102
}
330
118
100
AcDbVisualStyle
  2
Conceptual
 70
     9
 71
     3
 72
     2
 73
     0
 90
        0
 40
-0.6
 41
-30.0
 62
     5
 63
     7
 74
     2
 91
        2
 64
     7
 65
   257
 75
     1
175
     1
 42
40.0
 92
        8
 66
     7
 43
1.0
 76
     1
 77
     6
 78
     2
 67
     7
 79
     3
170
     0
171
     0
290
     0
174
     0
 93
        1
 44
0.0
173
     0
291
     0
 45
0.0
1001
ACAD
1000
AcDbSavedByObjectVersion
1070
     0
  0
VISUALSTYLE
  5
123
102
{ACAD_REACTORS
330
118
102
}
330
118
100
AcDbVisualStyle
  2
Dim
 70
    11
 71
     2
 72
     2
 73
     0
 90
        0
 40
-0.6
 41
-30.0
 62
     5
 63
     7
 74
     1
 91
        4
 64
     7
 65
   257
 75
     1
175
     1
 42
1.0
 92
        8
 66
     7
 43
1.0
 76
     1
 77
     6
 78
     2
 67
     7
 79
     5
170
     0
171
     0
290
     0
174
     0
 93
        1
 44
-50.0
173
     0
291
     1
 45
0.0
1001
ACAD
1000
AcDbSavedByObjectVersion
1070
     0
  0
VISUALSTYLE
  5
127
102
{ACAD_REACTORS
330
118
102
}
330
118
100
AcDbVisualStyle
  2
Facepattern
 70
    15
 71
     2
 72
     2
 73
     0
 90
        0
 40
-0.6
 41
-30.0
 62
     5
 63
     7
 74
     1
 91
        4
 64
     7
 65
   257
 75
     1
175
     1
 42
1.0
 92
        8
 66
     7
 43
1.0
 76
     1
 77
     6
 78
     2
 67
     7
 79
     5
170
     0
171
     0
290
     0
174
     0
 93
        1
 44
0.0
173
     0
291
     1
 45
0.0
1001
ACAD
1000
AcDbSavedByObjectVersion
1070
     0
  0
VISUALSTYLE
  5
119
102
{ACAD_REACTORS
330
118
102
}
330
118
100
AcDbVisualStyle
  2
Flat
 70
     0
 71
     2
 72
     1
 73
     1
 90
        2
 40
-0.6
 41
30.0
 62
     5
 63
     7
 74
     0
 91
        4
 64
     7
 65
   257
 75
     1
175
     1
 42
1.0
 92
        8
 66
     7
 43
1.0
 76
     1
 77
     6
 78
     2
 67
     7
 79
     5
170
     0
171
     0
290
     0
174
     0
 93
       13
 44
0.0
173
     0
291
     1
 45
0.0
1001
ACAD
1000
AcDbSavedByObjectVersion
1070
     0
  0
VISUALSTYLE
  5
11A
102
{ACAD_REACTORS
330
118
102
}
330
118
100
AcDbVisualStyle
  2
FlatWithEdges
 70
     1
 71
     2
 72
     1
 73
     1
 90
        2
 40
-0.6
 41
30.0
 62
     5
 63
     7
 74
     1
 91
        4
 64
     7
 65
   257
 75
     1
175
     1
 42
1.0
 92
        0
 66
   257
 43
1.0
 76
     1
 77
     6
 78
     2
 67
     7
 79
     5
170
     0
171
     0
290
     0
174
     0
 93
       13
 44
0.0
173
     0
291
     1
 45
0.0
1001
ACAD
1000
AcDbSavedByObjectVersion
1070
     0
  0
VISUALSTYLE
  5
11B
102
{ACAD_REACTORS
330
118
102
}
330
118
100
AcDbVisualStyle
  2
Gouraud
 70
     2
 71
     2
 72
     2
 73
     1
 90
        2
 40
-0.6
 41
30.0
 62
     5
 63
     7
 74
     0
 91
        4
 64
     7
 65
   257
 75
     1
175
     1
 42
1.0
 92
        0
 66
     7
 43
1.0
 76
     1
 77
     6
 78
     2
 67
     7
 79
     5
170
     0
171
     0
290
     0
174
     0
 93
       13
 44
0.0
173
     0
291
     1
 45
0.0
1001
ACAD
1000
AcDbSavedByObjectVersion
1070
     0
  0
VISUALSTYLE
  5
11C
102
{ACAD_REACTORS
330
118
102
}
330
118
100
AcDbVisualStyle
  2
GouraudWithEdges
 70
     3
 71
     2
 72
     2
 73
     1
 90
        2
 40
-0.6
 41
30.0
 62
     5
 63
     7
 74
     1
 91
        4
 64
     7
 65
   257
 75
     1
175
     1
 42
1.0
 92
        0
 66
   257
 43
1.0
 76
     1
 77
     6
 78
     2
 67
     7
 79
     5
170
     0
171
     0
290
     0
174
     0
 93
       13
 44
0.0
173
     0
291
     1
 45
0.0
1001
ACAD
1000
AcDbSavedByObjectVersion
1070
     0
  0
VISUALSTYLE
  5
126
102
{ACAD_REACTORS
330
118
102
}
330
118
100
AcDbVisualStyle
  2
Linepattern
 70
    14
 71
     2
 72
     2
 73
     0
 90
        0
 40
-0.6
 41
-30.0
 62
     5
 63
     7
 74
     1
 91
        4
 64
     7
 65
   257
 75
     7
175
     7
 42
1.0
 92
        8
 66
     7
 43
1.0
 76
     1
 77
     6
 78
     2
 67
     7
 79
     5
170
     0
171
     0
290
     0
174
     0
 93
        1
 44
0.0
173
     0
291
     1
 45
0.0
1001
ACAD
1000
AcDbSavedByObjectVersion
1070
     0
  0
VISUALSTYLE
  5
122
102
{ACAD_REACTORS
330
118
102
}
330
118
100
AcDbVisualStyle
  2
Realistic
 70
     8
 71
     2
 72
     2
 73
     0
 90
        0
 40
-0.6
 41
-30.0
 62
     5
 63
     7
 74
     1
 91
        0
 64
     7
 65
   257
 75
     1
175
     1
 42
1.0
 92
        8
 66
     8
 43
1.0
 76
     1
 77
     6
 78
     2
 67
     7
 79
     5
170
     0
171
     0
290
     0
174
     0
 93
       13
 44
0.0
173
     0
291
     0
 45
0.0
1001
ACAD
1000
AcDbSavedByObjectVersion
1070
     0
  0
VISUALSTYLE
  5
125
102
{ACAD_REACTORS
330
118
102
}
330
118
100
AcDbVisualStyle
  2
Thicken
 70
    13
 71
     2
 72
     2
 73
     0
 90
        0
 40
-0.6
 41
-30.0
 62
     5
 63
     7
 74
     1
 91
        4
 64
     7
 65
   257
 75
     1
175
     1
 42
1.0
 92
       12
 66
     7
 43
1.0
 76
     1
 77
     6
 78
     2
 67
     7
 79
     5
170
     0
171
     0
290
     0
174
     0
 93
        1
 44
0.0
173
     0
291
     1
 45
0.0
1001
ACAD
1000
AcDbSavedByObjectVersion
1070
     0
  0
DICTIONARYVAR
  5
155
102
{ACAD_REACTORS
330
154
102
}
330
154
100
DictionaryVariables
280
     0
  1
STANDARD
  0
DICTIONARYVAR
  5
158
102
{ACAD_REACTORS
330
154
102
}
330
154
100
DictionaryVariables
280
     0
  1
1
  0
DICTIONARYVAR
  5
157
102
{ACAD_REACTORS
330
154
102
}
330
154
100
DictionaryVariables
280
     0
  1
0
  0
DICTIONARYVAR
  5
156
102
{ACAD_REACTORS
330
154
102
}
330
154
100
DictionaryVariables
280
     0
  1
127
  0
DICTIONARY
  5
162
330
139
100
AcDbDictionary
280
     1
281
     1
  3
ACAD_XREC_ROUNDTRIP
360
163
  0
DICTIONARY
  5
164
330
13D
100
AcDbDictionary
280
     1
281
     1
  3
ACAD_XREC_ROUNDTRIP
360
165
  0
DICTIONARY
  5
15C
330
116
100
AcDbDictionary
280
     1
281
     1
  3
ACAD_XREC_ROUNDTRIP
360
15D
  0
DICTIONARY
  5
15A
330
115
100
AcDbDictionary
280
     1
281
     1
  3
ACAD_XREC_ROUNDTRIP
360
15B
  0
DICTIONARY
  5
15E
330
117
100
AcDbDictionary
280
     1
281
     1
  3
ACAD_XREC_ROUNDTRIP
360
15F
  0
DICTIONARY
  5
160
330
135
100
AcDbDictionary
280
     1
281
     1
  3
ACAD_XREC_ROUNDTRIP
360
161
  0
XRECORD
  5
163
102
{ACAD_REACTORS
330
162
102
}
330
162
100
AcDbXrecord
280
     1
102
SHADEPLOT
 70
     0
102
SHADEPLOTRESLEVEL
 70
     2
102
SHADEPLOTCUSTOMDPI
 70
   300
  0
XRECORD
  5
165
102
{ACAD_REACTORS
330
164
102
}
330
164
100
AcDbXrecord
280
     1
102
SHADEPLOT
 70
     0
102
SHADEPLOTRESLEVEL
 70
     2
102
SHADEPLOTCUSTOMDPI
 70
   300
  0
XRECORD
  5
15D
102
{ACAD_REACTORS
330
15C
102
}
330
15C
100
AcDbXrecord
280
     1
102
MATERIAL
148
0.0
149
0.0
149
0.0
 93
        0
 94
       63
282
     0
 72
     1
 77
     1
171
     1
175
     1
179
     1
273
     0
  0
XRECORD
  5
15B
102
{ACAD_REACTORS
330
15A
102
}
330
15A
100
AcDbXrecord
280
     1
102
MATERIAL
148
0.0
149
0.0
149
0.0
 93
        0
 94
       63
282
     0
 72
     1
 77
     1
171
     1
175
     1
179
     1
273
     0
  0
XRECORD
  5
15F
102
{ACAD_REACTORS
330
15E
102
}
330
15E
100
AcDbXrecord
280
     1
102
MATERIAL
148
0.0
149
0.0
149
0.0
 93
        0
 94
       63
282
     0
 72
     1
 77
     1
171
     1
175
     1
179
     1
273
     0
  0
XRECORD
  5
161
102
{ACAD_REACTORS
330
160
102
}
330
160
100
AcDbXrecord
280
     1
102
ACAD_ROUNDTRIP_PRE2007_TABLESTYLE
 90
      512
 91
        0
  1

 92
      512
 93
        0
  2

 94
      512
 95
        0
  3

  0
ENDSEC
  0
EOF
