  0
SECTION
  2
HEADER
  9
$ACADVER
  1
AC1015
  9
$ACADMAINTVER
 70
    20
  9
$DWGCODEPAGE
  3
ANSI_1252
  9
$INSBASE
 10
0.0
 20
0.0
 30
0.0
  9
$EXTMIN
 10
-18.40576076228842
 20
-33.61280757516249
 30
-17.54150386846333
  9
$EXTMAX
 10
21.26403859963648
 20
33.61734047277991
 30
50.00000009313227
  9
$LIMMIN
 10
0.0
 20
0.0
  9
$LIMMAX
 10
420.0
 20
297.0
  9
$ORTHOMODE
 70
     0
  9
$REGENMODE
 70
     1
  9
$FILLMODE
 70
     1
  9
$QTEXTMODE
 70
     0
  9
$MIRRTEXT
 70
     1
  9
$LTSCALE
 40
1.0
  9
$ATTMODE
 70
     1
  9
$TEXTSIZE
 40
2.5
  9
$TRACEWID
 40
1.0
  9
$TEXTSTYLE
  7
STANDARD
  9
$CLAYER
  8
0
  9
$CELTYPE
  6
BYLAYER
  9
$CECOLOR
 62
   256
  9
$CELTSCALE
 40
1.0
  9
$DISPSILH
 70
     0
  9
$DIMSCALE
 40
1.0
  9
$DIMASZ
 40
2.5
  9
$DIMEXO
 40
0.625
  9
$DIMDLI
 40
3.75
  9
$DIMRND
 40
0.0
  9
$DIMDLE
 40
0.0
  9
$DIMEXE
 40
1.25
  9
$DIMTP
 40
0.0
  9
$DIMTM
 40
0.0
  9
$DIMTXT
 40
2.5
  9
$DIMCEN
 40
2.5
  9
$DIMTSZ
 40
0.0
  9
$DIMTOL
 70
     0
  9
$DIMLIM
 70
     0
  9
$DIMTIH
 70
     0
  9
$DIMTOH
 70
     0
  9
$DIMSE1
 70
     0
  9
$DIMSE2
 70
     0
  9
$DIMTAD
 70
     1
  9
$DIMZIN
 70
     8
  9
$DIMBLK
  1

  9
$DIMASO
 70
     1
  9
$DIMSHO
 70
     1
  9
$DIMPOST
  1

  9
$DIMAPOST
  1

  9
$DIMALT
 70
     0
  9
$DIMALTD
 70
     3
  9
$DIMALTF
 40
0.03937007874016
  9
$DIMLFAC
 40
1.0
  9
$DIMTOFL
 70
     1
  9
$DIMTVP
 40
0.0
  9
$DIMTIX
 70
     0
  9
$DIMSOXD
 70
     0
  9
$DIMSAH
 70
     0
  9
$DIMBLK1
  1

  9
$DIMBLK2
  1

  9
$DIMSTYLE
  2
ISO-25
  9
$DIMCLRD
 70
     0
  9
$DIMCLRE
 70
     0
  9
$DIMCLRT
 70
     0
  9
$DIMTFAC
 40
1.0
  9
$DIMGAP
 40
0.625
  9
$DIMJUST
 70
     0
  9
$DIMSD1
 70
     0
  9
$DIMSD2
 70
     0
  9
$DIMTOLJ
 70
     0
  9
$DIMTZIN
 70
     8
  9
$DIMALTZ
 70
     0
  9
$DIMALTTZ
 70
     0
  9
$DIMUPT
 70
     0
  9
$DIMDEC
 70
     2
  9
$DIMTDEC
 70
     2
  9
$DIMALTU
 70
     2
  9
$DIMALTTD
 70
     3
  9
$DIMTXSTY
  7
STANDARD
  9
$DIMAUNIT
 70
     0
  9
$DIMADEC
 70
     0
  9
$DIMALTRND
 40
0.0
  9
$DIMAZIN
 70
     0
  9
$DIMDSEP
 70
    46
  9
$DIMATFIT
 70
     3
  9
$DIMFRAC
 70
     0
  9
$DIMLDRBLK
  1

  9
$DIMLUNIT
 70
     2
  9
$DIMLWD
 70
    -2
  9
$DIMLWE
 70
    -2
  9
$DIMTMOVE
 70
     0
  9
$LUNITS
 70
     2
  9
$LUPREC
 70
     4
  9
$SKETCHINC
 40
1.0
  9
$FILLETRAD
 40
10.0
  9
$AUNITS
 70
     0
  9
$AUPREC
 70
     0
  9
$MENU
  1
.
  9
$ELEVATION
 40
0.0
  9
$PELEVATION
 40
0.0
  9
$THICKNESS
 40
0.0
  9
$LIMCHECK
 70
     0
  9
$CHAMFERA
 40
0.0
  9
$CHAMFERB
 40
0.0
  9
$CHAMFERC
 40
0.0
  9
$CHAMFERD
 40
0.0
  9
$SKPOLY
 70
     0
  9
$TDCREATE
 40
2457260.636263148
  9
$TDUCREATE
 40
2457260.407096482
  9
$TDUPDATE
 40
2457261.502801945
  9
$TDUUPDATE
 40
2457261.273635278
  9
$TDINDWG
 40
0.0012644676
  9
$TDUSRTIMER
 40
0.0012644329
  9
$USRTIMER
 70
     1
  9
$ANGBASE
 50
0.0
  9
$ANGDIR
 70
     0
  9
$PDMODE
 70
     0
  9
$PDSIZE
 40
0.0
  9
$PLINEWID
 40
0.0
  9
$SPLFRAME
 70
     0
  9
$SPLINETYPE
 70
     6
  9
$SPLINESEGS
 70
     8
  9
$HANDSEED
  5
3E8
  9
$SURFTAB1
 70
     6
  9
$SURFTAB2
 70
     6
  9
$SURFTYPE
 70
     6
  9
$SURFU
 70
     6
  9
$SURFV
 70
     6
  9
$UCSBASE
  2

  9
$UCSNAME
  2

  9
$UCSORG
 10
0.0
 20
0.0
 30
0.0
  9
$UCSXDIR
 10
1.0
 20
0.0
 30
0.0
  9
$UCSYDIR
 10
0.0
 20
1.0
 30
0.0
  9
$UCSORTHOREF
  2

  9
$UCSORTHOVIEW
 70
     0
  9
$UCSORGTOP
 10
0.0
 20
0.0
 30
0.0
  9
$UCSORGBOTTOM
 10
0.0
 20
0.0
 30
0.0
  9
$UCSORGLEFT
 10
0.0
 20
0.0
 30
0.0
  9
$UCSORGRIGHT
 10
0.0
 20
0.0
 30
0.0
  9
$UCSORGFRONT
 10
0.0
 20
0.0
 30
0.0
  9
$UCSORGBACK
 10
0.0
 20
0.0
 30
0.0
  9
$PUCSBASE
  2

  9
$PUCSNAME
  2

  9
$PUCSORG
 10
0.0
 20
0.0
 30
0.0
  9
$PUCSXDIR
 10
1.0
 20
0.0
 30
0.0
  9
$PUCSYDIR
 10
0.0
 20
1.0
 30
0.0
  9
$PUCSORTHOREF
  2

  9
$PUCSORTHOVIEW
 70
     0
  9
$PUCSORGTOP
 10
0.0
 20
0.0
 30
0.0
  9
$PUCSORGBOTTOM
 10
0.0
 20
0.0
 30
0.0
  9
$PUCSORGLEFT
 10
0.0
 20
0.0
 30
0.0
  9
$PUCSORGRIGHT
 10
0.0
 20
0.0
 30
0.0
  9
$PUCSORGFRONT
 10
0.0
 20
0.0
 30
0.0
  9
$PUCSORGBACK
 10
0.0
 20
0.0
 30
0.0
  9
$USERI1
 70
     0
  9
$USERI2
 70
     0
  9
$USERI3
 70
     0
  9
$USERI4
 70
     0
  9
$USERI5
 70
     0
  9
$USERR1
 40
0.0
  9
$USERR2
 40
0.0
  9
$USERR3
 40
0.0
  9
$USERR4
 40
0.0
  9
$USERR5
 40
0.0
  9
$WORLDVIEW
 70
     1
  9
$SHADEDGE
 70
     3
  9
$SHADEDIF
 70
    70
  9
$TILEMODE
 70
     1
  9
$MAXACTVP
 70
    64
  9
$PINSBASE
 10
0.0
 20
0.0
 30
0.0
  9
$PLIMCHECK
 70
     0
  9
$PEXTMIN
 10
1.000000000000000E+20
 20
1.000000000000000E+20
 30
1.000000000000000E+20
  9
$PEXTMAX
 10
-1.000000000000000E+20
 20
-1.000000000000000E+20
 30
-1.000000000000000E+20
  9
$PLIMMIN
 10
0.0
 20
0.0
  9
$PLIMMAX
 10
420.0
 20
297.0
  9
$UNITMODE
 70
     0
  9
$VISRETAIN
 70
     1
  9
$PLINEGEN
 70
     0
  9
$PSLTSCALE
 70
     1
  9
$TREEDEPTH
 70
  3020
  9
$CMLSTYLE
  2
STANDARD
  9
$CMLJUST
 70
     0
  9
$CMLSCALE
 40
20.0
  9
$PROXYGRAPHICS
 70
     1
  9
$MEASUREMENT
 70
     0
  9
$CELWEIGHT
370
    -1
  9
$ENDCAPS
280
     0
  9
$JOINSTYLE
280
     0
  9
$LWDISPLAY
290
     0
  9
$INSUNITS
 70
     0
  9
$HYPERLINKBASE
  1

  9
$STYLESHEET
  1

  9
$XEDIT
290
     1
  9
$CEPSNTYPE
380
     0
  9
$PSTYLEMODE
290
     1
  9
$FINGERPRINTGUID
  2
{237F9F9D-54C9-4B55-9BAD-CD6CDD1C3926}
  9
$VERSIONGUID
  2
{CC80EA21-42D6-4587-A5F5-55BEB27CE023}
  9
$EXTNAMES
290
     1
  9
$PSVPSCALE
 40
0.0
  9
$OLESTARTUP
290
     0
  0
ENDSEC
  0
SECTION
  2
CLASSES
  0
CLASS
  1
ACDBDICTIONARYWDFLT
  2
AcDbDictionaryWithDefault
  3
ObjectDBX Classes
 90
        0
280
     0
281
     0
  0
CLASS
  1
VISUALSTYLE
  2
AcDbVisualStyle
  3
ObjectDBX Classes
 90
     4095
280
     0
281
     0
  0
CLASS
  1
MATERIAL
  2
AcDbMaterial
  3
ObjectDBX Classes
 90
     1153
280
     0
281
     0
  0
CLASS
  1
SCALE
  2
AcDbScale
  3
ObjectDBX Classes
 90
     1153
280
     0
281
     0
  0
CLASS
  1
SUN
  2
AcDbSun
  3
SCENEOE
 90
    33921
280
     0
281
     0
  0
CLASS
  1
DICTIONARYVAR
  2
AcDbDictionaryVar
  3
ObjectDBX Classes
 90
        0
280
     0
281
     0
  0
CLASS
  1
XRECORD
  2
AcDbXrecord
  3
ObjectDBX Classes
 90
        0
280
     0
281
     0
  0
CLASS
  1
LWPOLYLINE
  2
AcDbPolyline
  3
ObjectDBX Classes
 90
    32768
280
     0
281
     1
  0
CLASS
  1
HATCH
  2
AcDbHatch
  3
ObjectDBX Classes
 90
    32768
280
     0
281
     1
  0
CLASS
  1
ACDBPLACEHOLDER
  2
AcDbPlaceHolder
  3
ObjectDBX Classes
 90
        0
280
     0
281
     0
  0
CLASS
  1
LAYOUT
  2
AcDbLayout
  3
ObjectDBX Classes
 90
        0
280
     0
281
     0
  0
CLASS
  1
TABLESTYLE
  2
AcDbTableStyle
  3
ObjectDBX Classes
 90
     4095
280
     0
281
     0
  0
CLASS
  1
MLEADERSTYLE
  2
AcDbMLeaderStyle
  3
ACDB_MLEADERSTYLE_CLASS
 90
     4095
280
     0
281
     0
  0
CLASS
  1
CELLSTYLEMAP
  2
AcDbCellStyleMap
  3
ObjectDBX Classes
 90
     1152
280
     0
281
     0
  0
ENDSEC
  0
SECTION
  2
TABLES
  0
TABLE
  2
VPORT
  5
8
330
0
100
AcDbSymbolTable
 70
     1
  0
VPORT
  5
29
330
8
100
AcDbSymbolTableRecord
100
AcDbViewportTableRecord
  2
*ACTIVE
 70
     0
 10
0.0
 20
0.0
 11
1.0
 21
1.0
 12
1.429138918674034
 22
0.0022664488087116
 13
0.0
 23
0.0
 14
10.0
 24
10.0
 15
10.0
 25
10.0
 16
0.0
 26
0.0
 36
1.0
 17
0.0
 27
0.0
 37
0.0
 40
67.71266107220994
 41
2.166467065868263
 42
50.0
 43
0.0
 44
0.0
 50
0.0
 51
0.0
 71
     0
 72
   100
 73
     1
 74
     3
 75
     0
 76
     0
 77
     0
 78
     0
281
     0
 65
     1
110
0.0
120
0.0
130
0.0
111
1.0
121
0.0
131
0.0
112
0.0
122
1.0
132
0.0
 79
     0
146
0.0
1001
ACAD_NAV_VCDISPLAY
1070
     3
  0
ENDTAB
  0
TABLE
  2
LTYPE
  5
5
330
0
100
AcDbSymbolTable
 70
     3
  0
LTYPE
  5
14
330
5
100
AcDbSymbolTableRecord
100
AcDbLinetypeTableRecord
  2
BYBLOCK
 70
     0
  3

 72
    65
 73
     0
 40
0.0
  0
LTYPE
  5
15
330
5
100
AcDbSymbolTableRecord
100
AcDbLinetypeTableRecord
  2
BYLAYER
 70
     0
  3

 72
    65
 73
     0
 40
0.0
  0
LTYPE
  5
16
330
5
100
AcDbSymbolTableRecord
100
AcDbLinetypeTableRecord
  2
CONTINUOUS
 70
     0
  3
Solid line
 72
    65
 73
     0
 40
0.0
  0
LTYPE
  5
6C
330
5
100
AcDbSymbolTableRecord
100
AcDbLinetypeTableRecord
  2
DASHED
 70
     0
  3

 72
    65
 73
     2
 40
2.0
 49
1.0
 74
     0
 49
-1.0
 74
     0
  0
LTYPE
  5
6E
330
5
100
AcDbSymbolTableRecord
100
AcDbLinetypeTableRecord
  2
CENTER
 70
     0
  3

 72
    65
 73
     4
 40
1.5
 49
0.45
 74
     0
 49
-0.5
 74
     0
 49
0.05
 74
     0
 49
-0.5
 74
     0
  0
ENDTAB
  0
TABLE
  2
LAYER
  5
2
330
0
100
AcDbSymbolTable
 70
    10
  0
LAYER
  5
10
102
{ACAD_XDICTIONARY
360
1AE
102
}
330
2
100
AcDbSymbolTableRecord
100
AcDbLayerTableRecord
  2
0
 70
     0
 62
     7
  6
CONTINUOUS
370
    -3
390
19F
  0
LAYER
  5
74
102
{ACAD_XDICTIONARY
360
1B0
102
}
330
2
100
AcDbSymbolTableRecord
100
AcDbLayerTableRecord
  2
CONNECTIONPOINTS
 70
     0
 62
     1
  6
CONTINUOUS
370
    -3
390
19F
  0
ENDTAB
  0
TABLE
  2
STYLE
  5
3
330
0
100
AcDbSymbolTable
 70
     1
  0
STYLE
  5
11
330
3
100
AcDbSymbolTableRecord
100
AcDbTextStyleTableRecord
  2
STANDARD
 70
     0
 40
0.0
 41
1.0
 50
0.0
 71
     0
 42
2.5
  3
txt
  4

  0
ENDTAB
  0
TABLE
  2
VIEW
  5
6
330
0
100
AcDbSymbolTable
 70
     1
  0
ENDTAB
  0
TABLE
  2
UCS
  5
7
330
0
100
AcDbSymbolTable
 70
     0
  0
ENDTAB
  0
TABLE
  2
APPID
  5
9
330
0
100
AcDbSymbolTable
 70
     3
  0
APPID
  5
12
330
9
100
AcDbSymbolTableRecord
100
AcDbRegAppTableRecord
  2
ACAD
 70
     0
  0
APPID
  5
1B9
330
9
100
AcDbSymbolTableRecord
100
AcDbRegAppTableRecord
  2
ACAD_NAV_VCDISPLAY
 70
     0
  0
APPID
  5
3E3
330
9
100
AcDbSymbolTableRecord
100
AcDbRegAppTableRecord
  2
ACAD_MLEADERVER
 70
     0
  0
ENDTAB
  0
TABLE
  2
DIMSTYLE
  5
A
330
0
100
AcDbSymbolTable
 70
     1
100
AcDbDimStyleTable
 71
     0
  0
DIMSTYLE
105
27
330
A
100
AcDbSymbolTableRecord
100
AcDbDimStyleTableRecord
  2
ISO-25
 70
     0
 41
2.5
 42
0.625
 43
3.75
 44
1.25
 73
     0
 74
     0
 77
     1
 78
     8
140
2.5
141
2.5
143
0.03937007874016
147
0.625
171
     3
172
     1
271
     2
272
     2
274
     3
283
     0
284
     8
340
11
  0
ENDTAB
  0
TABLE
  2
BLOCK_RECORD
  5
1
330
0
100
AcDbSymbolTable
 70
     0
  0
BLOCK_RECORD
  5
1F
330
1
100
AcDbSymbolTableRecord
100
AcDbBlockTableRecord
  2
*MODEL_SPACE
340
1A6
  0
BLOCK_RECORD
  5
1B
330
1
100
AcDbSymbolTableRecord
100
AcDbBlockTableRecord
  2
*PAPER_SPACE
340
1A7
  0
ENDTAB
  0
ENDSEC
  0
SECTION
  2
BLOCKS
  0
BLOCK
  5
20
330
1F
100
AcDbEntity
  8
0
100
AcDbBlockBegin
  2
*MODEL_SPACE
 70
     0
 10
0.0
 20
0.0
 30
0.0
  3
*MODEL_SPACE
  1

  0
ENDBLK
  5
21
330
1F
100
AcDbEntity
  8
0
100
AcDbBlockEnd
  0
BLOCK
  5
1C
330
1B
100
AcDbEntity
 67
     1
  8
0
100
AcDbBlockBegin
  2
*PAPER_SPACE
 70
     0
 10
0.0
 20
0.0
 30
0.0
  3
*PAPER_SPACE
  1

  0
ENDBLK
  5
1D
330
1B
100
AcDbEntity
 67
     1
  8
0
100
AcDbBlockEnd
  0
ENDSEC
  0
SECTION
  2
ENTITIES
  0
LINE
  5
75
330
1F
100
AcDbEntity
  8
0
  6
DASHED
100
AcDbLine
 10
4.711480183076199
 20
6.000000000000003
 30
0.0
 11
4.711480183076199
 21
-5.999999999999996
 31
0.0
  0
LINE
  5
76
330
1F
100
AcDbEntity
  8
0
  6
DASHED
100
AcDbLine
 10
5.857501008162355
 20
6.000000000000003
 30
0.0
 11
5.857501008162355
 21
-5.999999999999996
 31
0.0
  0
LINE
  5
77
330
1F
100
AcDbEntity
  8
0
  6
DASHED
100
AcDbLine
 10
4.351555446848997
 20
6.000000000000003
 30
0.0
 11
4.351555446848997
 21
-5.999999999999996
 31
0.0
  0
LINE
  5
78
330
1F
100
AcDbEntity
  8
0
  6
DASHED
100
AcDbLine
 10
0.57352725315173
 20
6.000000000000003
 30
0.0
 11
0.57352725315173
 21
-5.999999999999996
 31
0.0
  0
LINE
  5
79
330
1F
100
AcDbEntity
  8
0
  6
DASHED
100
AcDbLine
 10
-0.7268336024088016
 20
6.000000000000003
 30
0.0
 11
-0.7268336024088016
 21
-5.999999999999996
 31
0.0
  0
LINE
  5
7A
330
1F
100
AcDbEntity
  8
0
  6
DASHED
100
AcDbLine
 10
-0.7346757502086928
 20
6.000000000000003
 30
0.0
 11
-0.7346757502086928
 21
-5.999999999999996
 31
0.0
  0
LINE
  5
7B
330
1F
100
AcDbEntity
  8
0
  6
DASHED
100
AcDbLine
 10
-1.870146491208713
 20
6.000000000000003
 30
0.0
 11
-1.870146491208713
 21
-5.999999999999996
 31
0.0
  0
LINE
  5
7C
330
1F
100
AcDbEntity
  8
0
  6
DASHED
100
AcDbLine
 10
10.28082169808331
 20
7.000000000000003
 30
0.0
 11
10.28082169808331
 21
-6.999999999999996
 31
0.0
  0
LINE
  5
7D
330
1F
100
AcDbEntity
  8
0
  6
DASHED
100
AcDbLine
 10
-3.379516368077506
 20
6.000000000000003
 30
0.0
 11
-3.379516368077506
 21
-5.999999999999996
 31
0.0
  0
LINE
  5
7E
330
1F
100
AcDbEntity
  8
0
  6
DASHED
100
AcDbLine
 10
-3.419999240020316
 20
6.000000000000003
 30
0.0
 11
-3.419999240020316
 21
-5.999999999999996
 31
0.0
  0
LINE
  5
7F
330
1F
100
AcDbEntity
  8
0
  6
DASHED
100
AcDbLine
 10
-3.090336753753308
 20
6.000000000000003
 30
0.0
 11
-3.090336753753308
 21
-5.999999999999996
 31
0.0
  0
LINE
  5
80
330
1F
100
AcDbEntity
  8
0
  6
DASHED
100
AcDbLine
 10
7.776717778447101
 20
6.000000000000003
 30
0.0
 11
7.7767177784471
 21
-5.999999999999996
 31
0.0
  0
LINE
  5
81
330
1F
100
AcDbEntity
  8
0
  6
DASHED
100
AcDbLine
 10
-1.602636245513151
 20
6.000000000000003
 30
0.0
 11
-1.602636245513151
 21
-5.999999999999996
 31
0.0
  0
LINE
  5
82
330
1F
100
AcDbEntity
  8
0
  6
DASHED
100
AcDbLine
 10
-1.934880311066475
 20
6.000000000000003
 30
0.0
 11
-1.934880311066475
 21
-5.999999999999996
 31
0.0
  0
LINE
  5
83
330
1F
100
AcDbEntity
  8
0
  6
DASHED
100
AcDbLine
 10
16.25275002472615
 20
4.030000000000003
 30
0.0
 11
16.21
 21
4.030000000000003
 31
0.0
  0
LINE
  5
84
330
1F
100
AcDbEntity
  8
0
  6
DASHED
100
AcDbLine
 10
16.21
 20
-4.029999999999996
 30
0.0
 11
16.25274288351112
 21
-4.029999999999996
 31
0.0
  0
LINE
  5
85
330
1F
100
AcDbEntity
  8
0
  6
DASHED
100
AcDbLine
 10
16.21
 20
4.030000000000003
 30
0.0
 11
16.21
 21
-4.029999999999996
 31
0.0
  0
POLYLINE
  5
86
330
1F
100
AcDbEntity
  8
0
  6
DASHED
100
AcDb3dPolyline
 66
     1
 10
0.0
 20
0.0
 30
0.0
 70
     8
  0
VERTEX
  5
87
330
86
100
AcDbEntity
  8
0
  6
DASHED
100
AcDbVertex
100
AcDb3dPolylineVertex
 10
16.55184430211949
 20
-2.768485718271726
 30
0.0
 70
    32
  0
VERTEX
  5
88
330
86
100
AcDbEntity
  8
0
  6
DASHED
100
AcDbVertex
100
AcDb3dPolylineVertex
 10
16.54251518768648
 20
-2.866326698271223
 30
0.0
 70
    32
  0
VERTEX
  5
89
330
86
100
AcDbEntity
  8
0
  6
DASHED
100
AcDbVertex
100
AcDb3dPolylineVertex
 10
16.49130362969354
 20
-3.299660203008113
 30
0.0
 70
    32
  0
VERTEX
  5
8A
330
86
100
AcDbEntity
  8
0
  6
DASHED
100
AcDbVertex
100
AcDb3dPolylineVertex
 10
16.43271777745801
 20
-3.640318458162659
 30
0.0
 70
    32
  0
VERTEX
  5
8B
330
86
100
AcDbEntity
  8
0
  6
DASHED
100
AcDbVertex
100
AcDb3dPolylineVertex
 10
16.36768379072614
 20
-3.878460800289348
 30
0.0
 70
    32
  0
VERTEX
  5
8C
330
86
100
AcDbEntity
  8
0
  6
DASHED
100
AcDbVertex
100
AcDb3dPolylineVertex
 10
16.29814127480407
 20
-4.007283376126868
 30
0.0
 70
    32
  0
VERTEX
  5
8D
330
86
100
AcDbEntity
  8
0
  6
DASHED
100
AcDbVertex
100
AcDb3dPolylineVertex
 10
16.25435334326689
 20
-4.029917771454318
 30
0.0
 70
    32
  0
VERTEX
  5
8E
330
86
100
AcDbEntity
  8
0
  6
DASHED
100
AcDbVertex
100
AcDb3dPolylineVertex
 10
16.25275391719638
 20
-4.029999999835593
 30
0.0
 70
    32
  0
SEQEND
  5
8F
330
86
100
AcDbEntity
  8
0
  6
DASHED
  0
POLYLINE
  5
90
330
1F
100
AcDbEntity
  8
0
  6
DASHED
100
AcDb3dPolyline
 66
     1
 10
0.0
 20
0.0
 30
0.0
 70
     8
  0
VERTEX
  5
91
330
90
100
AcDbEntity
  8
0
  6
DASHED
100
AcDbVertex
100
AcDb3dPolylineVertex
 10
16.55187589337785
 20
2.768142350355015
 30
0.0
 70
    32
  0
VERTEX
  5
92
330
90
100
AcDbEntity
  8
0
  6
DASHED
100
AcDbVertex
100
AcDb3dPolylineVertex
 10
16.56069414348712
 20
2.668223365887437
 30
0.0
 70
    32
  0
VERTEX
  5
93
330
90
100
AcDbEntity
  8
0
  6
DASHED
100
AcDbVertex
100
AcDb3dPolylineVertex
 10
16.59992396820628
 20
2.121036191440654
 30
0.0
 70
    32
  0
VERTEX
  5
94
330
90
100
AcDbEntity
  8
0
  6
DASHED
100
AcDbVertex
100
AcDb3dPolylineVertex
 10
16.62916970025335
 20
1.515272356250848
 30
0.0
 70
    32
  0
VERTEX
  5
95
330
90
100
AcDbEntity
  8
0
  6
DASHED
100
AcDbVertex
100
AcDb3dPolylineVertex
 10
16.64822268992986
 20
0.8664248212549852
 30
0.0
 70
    32
  0
VERTEX
  5
96
330
90
100
AcDbEntity
  8
0
  6
DASHED
100
AcDbVertex
100
AcDb3dPolylineVertex
 10
16.65659429601082
 20
0.1951429820454171
 30
0.0
 70
    32
  0
VERTEX
  5
97
330
90
100
AcDbEntity
  8
0
  6
DASHED
100
AcDbVertex
100
AcDb3dPolylineVertex
 10
16.65436160598396
 20
-0.4816569370862333
 30
0.0
 70
    32
  0
VERTEX
  5
98
330
90
100
AcDbEntity
  8
0
  6
DASHED
100
AcDbVertex
100
AcDb3dPolylineVertex
 10
16.64146326959807
 20
-1.143535249355926
 30
0.0
 70
    32
  0
VERTEX
  5
99
330
90
100
AcDbEntity
  8
0
  6
DASHED
100
AcDbVertex
100
AcDb3dPolylineVertex
 10
16.61826240561914
 20
-1.773224023484725
 30
0.0
 70
    32
  0
VERTEX
  5
9A
330
90
100
AcDbEntity
  8
0
  6
DASHED
100
AcDbVertex
100
AcDb3dPolylineVertex
 10
16.58502218488609
 20
-2.352806939741411
 30
0.0
 70
    32
  0
VERTEX
  5
9B
330
90
100
AcDbEntity
  8
0
  6
DASHED
100
AcDbVertex
100
AcDb3dPolylineVertex
 10
16.55184430211949
 20
-2.768485718271726
 30
0.0
 70
    32
  0
SEQEND
  5
9C
330
90
100
AcDbEntity
  8
0
  6
DASHED
  0
POLYLINE
  5
9D
330
1F
100
AcDbEntity
  8
0
  6
DASHED
100
AcDb3dPolyline
 66
     1
 10
0.0
 20
0.0
 30
0.0
 70
     8
  0
VERTEX
  5
9E
330
9D
100
AcDbEntity
  8
0
  6
DASHED
100
AcDbVertex
100
AcDb3dPolylineVertex
 10
16.25275002472615
 20
4.030000000000003
 30
0.0
 70
    32
  0
VERTEX
  5
9F
330
9D
100
AcDbEntity
  8
0
  6
DASHED
100
AcDbVertex
100
AcDb3dPolylineVertex
 10
16.32457383992327
 20
3.972002015448103
 30
0.0
 70
    32
  0
VERTEX
  5
A0
330
9D
100
AcDbEntity
  8
0
  6
DASHED
100
AcDbVertex
100
AcDb3dPolylineVertex
 10
16.39296496781221
 20
3.801135142741283
 30
0.0
 70
    32
  0
VERTEX
  5
A1
330
9D
100
AcDbEntity
  8
0
  6
DASHED
100
AcDbVertex
100
AcDb3dPolylineVertex
 10
16.45609175014002
 20
3.520441437107908
 30
0.0
 70
    32
  0
VERTEX
  5
A2
330
9D
100
AcDbEntity
  8
0
  6
DASHED
100
AcDbVertex
100
AcDb3dPolylineVertex
 10
16.5125098347625
 20
3.139180177999038
 30
0.0
 70
    32
  0
VERTEX
  5
A3
330
9D
100
AcDbEntity
  8
0
  6
DASHED
100
AcDbVertex
100
AcDb3dPolylineVertex
 10
16.55187589337785
 20
2.768142350355015
 30
0.0
 70
    32
  0
SEQEND
  5
A4
330
9D
100
AcDbEntity
  8
0
  6
DASHED
  0
LINE
  5
A5
330
1F
100
AcDbEntity
  8
0
  6
DASHED
100
AcDbLine
 10
16.25275391719638
 20
-4.029999999835593
 30
0.0
 11
16.20999999999997
 21
-4.010361276651245
 31
0.0
  0
LINE
  5
A6
330
1F
100
AcDbEntity
  8
0
  6
DASHED
100
AcDbLine
 10
14.71
 20
-4.029999999999996
 30
0.0
 11
15.25275472679899
 21
-4.029999999999996
 31
0.0
  0
LINE
  5
A7
330
1F
100
AcDbEntity
  8
0
  6
DASHED
100
AcDbLine
 10
15.25253944968711
 20
4.030000000000003
 30
0.0
 11
14.71
 21
4.030000000000003
 31
0.0
  0
POLYLINE
  5
A8
330
1F
100
AcDbEntity
  8
0
  6
DASHED
100
AcDb3dPolyline
 66
     1
 10
0.0
 20
0.0
 30
0.0
 70
     8
  0
VERTEX
  5
A9
330
A8
100
AcDbEntity
  8
0
  6
DASHED
100
AcDbVertex
100
AcDb3dPolylineVertex
 10
15.25272166694696
 20
4.029999988140767
 30
0.0
 70
    32
  0
VERTEX
  5
AA
330
A8
100
AcDbEntity
  8
0
  6
DASHED
100
AcDbVertex
100
AcDb3dPolylineVertex
 10
15.22551165783773
 20
4.021604896168966
 30
0.0
 70
    32
  0
VERTEX
  5
AB
330
A8
100
AcDbEntity
  8
0
  6
DASHED
100
AcDbVertex
100
AcDb3dPolylineVertex
 10
15.15217588404965
 20
3.921840767769698
 30
0.0
 70
    32
  0
VERTEX
  5
AC
330
A8
100
AcDbEntity
  8
0
  6
DASHED
100
AcDbVertex
100
AcDb3dPolylineVertex
 10
15.08012843007253
 20
3.708550154297151
 30
0.0
 70
    32
  0
VERTEX
  5
AD
330
A8
100
AcDbEntity
  8
0
  6
DASHED
100
AcDbVertex
100
AcDb3dPolylineVertex
 10
15.0118106051816
 20
3.389289150741908
 30
0.0
 70
    32
  0
VERTEX
  5
AE
330
A8
100
AcDbEntity
  8
0
  6
DASHED
100
AcDbVertex
100
AcDb3dPolylineVertex
 10
14.94962498151074
 20
2.972090512254912
 30
0.0
 70
    32
  0
VERTEX
  5
AF
330
A8
100
AcDbEntity
  8
0
  6
DASHED
100
AcDbVertex
100
AcDb3dPolylineVertex
 10
14.8955578771098
 20
2.469581789404705
 30
0.0
 70
    32
  0
VERTEX
  5
B0
330
A8
100
AcDbEntity
  8
0
  6
DASHED
100
AcDbVertex
100
AcDb3dPolylineVertex
 10
14.85189919770928
 20
1.897913925598613
 30
0.0
 70
    32
  0
VERTEX
  5
B1
330
A8
100
AcDbEntity
  8
0
  6
DASHED
100
AcDbVertex
100
AcDb3dPolylineVertex
 10
14.81982214110494
 20
1.271846905930406
 30
0.0
 70
    32
  0
VERTEX
  5
B2
330
A8
100
AcDbEntity
  8
0
  6
DASHED
100
AcDbVertex
100
AcDb3dPolylineVertex
 10
14.80082972360012
 20
0.6131558611612613
 30
0.0
 70
    32
  0
VERTEX
  5
B3
330
A8
100
AcDbEntity
  8
0
  6
DASHED
100
AcDbVertex
100
AcDb3dPolylineVertex
 10
14.79519858872487
 20
-0.0629791094852604
 30
0.0
 70
    32
  0
VERTEX
  5
B4
330
A8
100
AcDbEntity
  8
0
  6
DASHED
100
AcDbVertex
100
AcDb3dPolylineVertex
 10
14.80329145796846
 20
-0.7341892207066003
 30
0.0
 70
    32
  0
VERTEX
  5
B5
330
A8
100
AcDbEntity
  8
0
  6
DASHED
100
AcDbVertex
100
AcDb3dPolylineVertex
 10
14.8245287943995
 20
-1.384710432946389
 30
0.0
 70
    32
  0
VERTEX
  5
B6
330
A8
100
AcDbEntity
  8
0
  6
DASHED
100
AcDbVertex
100
AcDb3dPolylineVertex
 10
14.85829682134979
 20
-1.995763713214538
 30
0.0
 70
    32
  0
VERTEX
  5
B7
330
A8
100
AcDbEntity
  8
0
  6
DASHED
100
AcDbVertex
100
AcDb3dPolylineVertex
 10
14.9031550068113
 20
-2.55091887571549
 30
0.0
 70
    32
  0
VERTEX
  5
B8
330
A8
100
AcDbEntity
  8
0
  6
DASHED
100
AcDbVertex
100
AcDb3dPolylineVertex
 10
14.95789631548308
 20
-3.035993358826906
 30
0.0
 70
    32
  0
VERTEX
  5
B9
330
A8
100
AcDbEntity
  8
0
  6
DASHED
100
AcDbVertex
100
AcDb3dPolylineVertex
 10
15.02028436410887
 20
-3.435980374628167
 30
0.0
 70
    32
  0
VERTEX
  5
BA
330
A8
100
AcDbEntity
  8
0
  6
DASHED
100
AcDbVertex
100
AcDb3dPolylineVertex
 10
15.08875670883493
 20
-3.740372183763015
 30
0.0
 70
    32
  0
VERTEX
  5
BB
330
A8
100
AcDbEntity
  8
0
  6
DASHED
100
AcDbVertex
100
AcDb3dPolylineVertex
 10
15.16063804695392
 20
-3.939261854921464
 30
0.0
 70
    32
  0
VERTEX
  5
BC
330
A8
100
AcDbEntity
  8
0
  6
DASHED
100
AcDbVertex
100
AcDb3dPolylineVertex
 10
15.20673032084242
 20
-4.007188522694971
 30
0.0
 70
    32
  0
VERTEX
  5
BD
330
A8
100
AcDbEntity
  8
0
  6
DASHED
100
AcDbVertex
100
AcDb3dPolylineVertex
 10
15.25275472679899
 20
-4.029999999999996
 30
0.0
 70
    32
  0
SEQEND
  5
BE
330
A8
100
AcDbEntity
  8
0
  6
DASHED
  0
LINE
  5
BF
330
1F
100
AcDbEntity
  8
0
  6
DASHED
100
AcDbLine
 10
14.71
 20
4.030000000000003
 30
0.0
 11
14.71
 21
-4.029999999999996
 31
0.0
  0
LINE
  5
C0
330
1F
100
AcDbEntity
  8
0
  6
DASHED
100
AcDbLine
 10
-0.8399990000000023
 20
8.000000000000003
 30
0.0
 11
-0.8399990000000023
 21
7.000000000000003
 31
0.0
  0
LINE
  5
C1
330
1F
100
AcDbEntity
  8
0
  6
DASHED
100
AcDbLine
 10
-0.8399990000000032
 20
-6.999999999999996
 30
0.0
 11
-0.8399990000000023
 21
-7.999999999999996
 31
0.0
  0
LINE
  5
C2
330
1F
100
AcDbEntity
  8
0
  6
DASHED
100
AcDbLine
 10
12.36606159617815
 20
-3.999999999999998
 30
0.0
 11
12.36606159617815
 21
4.000000000000002
 31
0.0
  0
LINE
  5
C3
330
1F
100
AcDbEntity
  8
0
  6
DASHED
100
AcDbLine
 10
-1.7899990000001
 20
7.000000000000002
 30
0.0
 11
-1.7899990000001
 21
6.000000000000002
 31
0.0
  0
LINE
  5
C4
330
1F
100
AcDbEntity
  8
0
  6
DASHED
100
AcDbLine
 10
-1.7899990000001
 20
-5.999999999999997
 30
0.0
 11
-1.7899990000001
 21
-6.999999999999997
 31
0.0
  0
LINE
  5
C5
330
1F
100
AcDbEntity
  8
0
  6
DASHED
100
AcDbLine
 10
12.73516939813985
 20
4.000000000000002
 30
0.0
 11
12.73516939813985
 21
-3.999999999999996
 31
0.0
  0
LINE
  5
C6
330
1F
100
AcDbEntity
  8
0
  6
DASHED
100
AcDbLine
 10
-1.489999000000096
 20
-5.999999999999997
 30
0.0
 11
-1.489999000000096
 21
-6.999999999999997
 31
0.0
  0
LINE
  5
C7
330
1F
100
AcDbEntity
  8
0
  6
DASHED
100
AcDbLine
 10
-1.489999000000096
 20
7.000000000000002
 30
0.0
 11
-1.489999000000096
 21
6.000000000000002
 31
0.0
  0
LINE
  5
C8
330
1F
100
AcDbEntity
  8
0
  6
DASHED
100
AcDbLine
 10
1.510000999999903
 20
-5.999999999999997
 30
0.0
 11
1.510000999999903
 21
-6.999999999999997
 31
0.0
  0
LINE
  5
C9
330
1F
100
AcDbEntity
  8
0
  6
DASHED
100
AcDbLine
 10
1.510000999999903
 20
7.000000000000002
 30
0.0
 11
1.510000999999903
 21
6.000000000000002
 31
0.0
  0
LINE
  5
CA
330
1F
100
AcDbEntity
  8
0
  6
DASHED
100
AcDbLine
 10
9.310672866922944
 20
6.000000000000003
 30
0.0
 11
9.310672866922944
 21
-5.999999999999996
 31
0.0
  0
LINE
  5
CB
330
1F
100
AcDbEntity
  8
0
  6
DASHED
100
AcDbLine
 10
11.36606940995444
 20
-3.999999999999996
 30
0.0
 11
11.36606940995444
 21
4.000000000000002
 31
0.0
  0
LINE
  5
CC
330
1F
100
AcDbEntity
  8
0
  6
DASHED
100
AcDbLine
 10
11.36606940995444
 20
4.000000000000002
 30
0.0
 11
12.73516939813985
 21
4.000000000000002
 31
0.0
  0
LINE
  5
CD
330
1F
100
AcDbEntity
  8
0
  6
DASHED
100
AcDbLine
 10
11.73517449827971
 20
4.000000000000002
 30
0.0
 11
11.73517449827971
 21
-3.999999999999996
 31
0.0
  0
LINE
  5
CE
330
1F
100
AcDbEntity
  8
0
  6
DASHED
100
AcDbLine
 10
12.73516939813985
 20
-3.999999999999996
 30
0.0
 11
11.36606940995444
 21
-3.999999999999996
 31
0.0
  0
LINE
  5
CF
330
1F
100
AcDbEntity
  8
0
  6
DASHED
100
AcDbLine
 10
16.97
 20
3.347832223533858
 30
0.0
 11
16.97
 21
-3.347832223533853
 31
0.0
  0
LINE
  5
D0
330
1F
100
AcDbEntity
  8
0
  6
DASHED
100
AcDbLine
 10
17.95190604883967
 20
-3.499999999999998
 30
0.0
 11
19.07
 21
-3.499999999999998
 31
0.0
  0
LINE
  5
D1
330
1F
100
AcDbEntity
  8
0
  6
DASHED
100
AcDbLine
 10
19.07
 20
3.500000000000001
 30
0.0
 11
17.95176496813803
 21
3.500000000000001
 31
0.0
  0
POLYLINE
  5
D2
330
1F
100
AcDbEntity
  8
0
  6
DASHED
100
AcDb3dPolyline
 66
     1
 10
0.0
 20
0.0
 30
0.0
 70
     8
  0
VERTEX
  5
D3
330
D2
100
AcDbEntity
  8
0
  6
DASHED
100
AcDbVertex
100
AcDb3dPolylineVertex
 10
17.92183852121828
 20
-3.211451896275361
 30
0.0
 70
    32
  0
VERTEX
  5
D4
330
D2
100
AcDbEntity
  8
0
  6
DASHED
100
AcDbVertex
100
AcDb3dPolylineVertex
 10
17.92408311250627
 20
-3.250581284532206
 30
0.0
 70
    32
  0
VERTEX
  5
D5
330
D2
100
AcDbEntity
  8
0
  6
DASHED
100
AcDbVertex
100
AcDb3dPolylineVertex
 10
17.93685820197467
 20
-3.422486065133085
 30
0.0
 70
    32
  0
VERTEX
  5
D6
330
D2
100
AcDbEntity
  8
0
  6
DASHED
100
AcDbVertex
100
AcDb3dPolylineVertex
 10
17.94455546556823
 20
-3.480513597388995
 30
0.0
 70
    32
  0
VERTEX
  5
D7
330
D2
100
AcDbEntity
  8
0
  6
DASHED
100
AcDbVertex
100
AcDb3dPolylineVertex
 10
17.95190604883967
 20
-3.499999999999998
 30
0.0
 70
    32
  0
SEQEND
  5
D8
330
D2
100
AcDbEntity
  8
0
  6
DASHED
  0
POLYLINE
  5
D9
330
1F
100
AcDbEntity
  8
0
  6
DASHED
100
AcDb3dPolyline
 66
     1
 10
0.0
 20
0.0
 30
0.0
 70
     8
  0
VERTEX
  5
DA
330
D9
100
AcDbEntity
  8
0
  6
DASHED
100
AcDbVertex
100
AcDb3dPolylineVertex
 10
17.92184046793367
 20
3.211487261096924
 30
0.0
 70
    32
  0
VERTEX
  5
DB
330
D9
100
AcDbEntity
  8
0
  6
DASHED
100
AcDbVertex
100
AcDb3dPolylineVertex
 10
17.9096286176405
 20
2.947815234385917
 30
0.0
 70
    32
  0
VERTEX
  5
DC
330
D9
100
AcDbEntity
  8
0
  6
DASHED
100
AcDbVertex
100
AcDb3dPolylineVertex
 10
17.89736135456885
 20
2.588829541618977
 30
0.0
 70
    32
  0
VERTEX
  5
DD
330
D9
100
AcDbEntity
  8
0
  6
DASHED
100
AcDbVertex
100
AcDb3dPolylineVertex
 10
17.88627553174909
 20
2.15681348628335
 30
0.0
 70
    32
  0
VERTEX
  5
DE
330
D9
100
AcDbEntity
  8
0
  6
DASHED
100
AcDbVertex
100
AcDb3dPolylineVertex
 10
17.87698854579942
 20
1.663152516227081
 30
0.0
 70
    32
  0
VERTEX
  5
DF
330
D9
100
AcDbEntity
  8
0
  6
DASHED
100
AcDbVertex
100
AcDb3dPolylineVertex
 10
17.86998510127199
 20
1.12256193638818
 30
0.0
 70
    32
  0
VERTEX
  5
E0
330
D9
100
AcDbEntity
  8
0
  6
DASHED
100
AcDbVertex
100
AcDb3dPolylineVertex
 10
17.86571598133402
 20
0.5500660326185911
 30
0.0
 70
    32
  0
VERTEX
  5
E1
330
D9
100
AcDbEntity
  8
0
  6
DASHED
100
AcDbVertex
100
AcDb3dPolylineVertex
 10
17.86437718397749
 20
-0.0379460185263308
 30
0.0
 70
    32
  0
VERTEX
  5
E2
330
D9
100
AcDbEntity
  8
0
  6
DASHED
100
AcDbVertex
100
AcDb3dPolylineVertex
 10
17.8661032900284
 20
-0.6246713259789988
 30
0.0
 70
    32
  0
VERTEX
  5
E3
330
D9
100
AcDbEntity
  8
0
  6
DASHED
100
AcDbVertex
100
AcDb3dPolylineVertex
 10
17.87073503711944
 20
-1.193788421979448
 30
0.0
 70
    32
  0
VERTEX
  5
E4
330
D9
100
AcDbEntity
  8
0
  6
DASHED
100
AcDbVertex
100
AcDb3dPolylineVertex
 10
17.87805170197172
 20
-1.728785285538259
 30
0.0
 70
    32
  0
VERTEX
  5
E5
330
D9
100
AcDbEntity
  8
0
  6
DASHED
100
AcDbVertex
100
AcDb3dPolylineVertex
 10
17.8875887983274
 20
-2.215073494436233
 30
0.0
 70
    32
  0
VERTEX
  5
E6
330
D9
100
AcDbEntity
  8
0
  6
DASHED
100
AcDbVertex
100
AcDb3dPolylineVertex
 10
17.89885181099714
 20
-2.638223738715525
 30
0.0
 70
    32
  0
VERTEX
  5
E7
330
D9
100
AcDbEntity
  8
0
  6
DASHED
100
AcDbVertex
100
AcDb3dPolylineVertex
 10
17.91121845859728
 20
-2.987030888797946
 30
0.0
 70
    32
  0
VERTEX
  5
E8
330
D9
100
AcDbEntity
  8
0
  6
DASHED
100
AcDbVertex
100
AcDb3dPolylineVertex
 10
17.92183852121828
 20
-3.211451896275361
 30
0.0
 70
    32
  0
SEQEND
  5
E9
330
D9
100
AcDbEntity
  8
0
  6
DASHED
  0
POLYLINE
  5
EA
330
1F
100
AcDbEntity
  8
0
  6
DASHED
100
AcDb3dPolyline
 66
     1
 10
0.0
 20
0.0
 30
0.0
 70
     8
  0
VERTEX
  5
EB
330
EA
100
AcDbEntity
  8
0
  6
DASHED
100
AcDbVertex
100
AcDb3dPolylineVertex
 10
17.95190127985013
 20
3.499999991332123
 30
0.0
 70
    32
  0
VERTEX
  5
EC
330
EA
100
AcDbEntity
  8
0
  6
DASHED
100
AcDbVertex
100
AcDb3dPolylineVertex
 10
17.94753247501257
 20
3.49263672654696
 30
0.0
 70
    32
  0
VERTEX
  5
ED
330
EA
100
AcDbEntity
  8
0
  6
DASHED
100
AcDbVertex
100
AcDb3dPolylineVertex
 10
17.93528249697947
 20
3.406246096940461
 30
0.0
 70
    32
  0
VERTEX
  5
EE
330
EA
100
AcDbEntity
  8
0
  6
DASHED
100
AcDbVertex
100
AcDb3dPolylineVertex
 10
17.9224653608408
 20
3.222458610538112
 30
0.0
 70
    32
  0
VERTEX
  5
EF
330
EA
100
AcDbEntity
  8
0
  6
DASHED
100
AcDbVertex
100
AcDb3dPolylineVertex
 10
17.92184046793367
 20
3.211487261096924
 30
0.0
 70
    32
  0
SEQEND
  5
F0
330
EA
100
AcDbEntity
  8
0
  6
DASHED
  0
LINE
  5
F1
330
1F
100
AcDbEntity
  8
0
  6
DASHED
100
AcDbLine
 10
19.07
 20
3.500000000000001
 30
0.0
 11
19.07
 21
-3.499999999999998
 31
0.0
  0
POLYLINE
  5
F2
330
1F
100
AcDbEntity
  8
0
  6
DASHED
100
AcDb3dPolyline
 66
     1
 10
0.0
 20
0.0
 30
0.0
 70
     8
  0
VERTEX
  5
F3
330
F2
100
AcDbEntity
  8
0
  6
DASHED
100
AcDbVertex
100
AcDb3dPolylineVertex
 10
16.97
 20
-3.347832223533853
 30
0.0
 70
    32
  0
VERTEX
  5
F4
330
F2
100
AcDbEntity
  8
0
  6
DASHED
100
AcDbVertex
100
AcDb3dPolylineVertex
 10
16.97830514236494
 20
-3.128642109720605
 30
0.0
 70
    32
  0
VERTEX
  5
F5
330
F2
100
AcDbEntity
  8
0
  6
DASHED
100
AcDbVertex
100
AcDb3dPolylineVertex
 10
16.98509764771282
 20
-2.821262157427398
 30
0.0
 70
    32
  0
VERTEX
  5
F6
330
F2
100
AcDbEntity
  8
0
  6
DASHED
100
AcDbVertex
100
AcDb3dPolylineVertex
 10
16.99040596286923
 20
-2.433228348216208
 30
0.0
 70
    32
  0
VERTEX
  5
F7
330
F2
100
AcDbEntity
  8
0
  6
DASHED
100
AcDbVertex
100
AcDb3dPolylineVertex
 10
16.99437816747326
 20
-1.976598690579726
 30
0.0
 70
    32
  0
VERTEX
  5
F8
330
F2
100
AcDbEntity
  8
0
  6
DASHED
100
AcDbVertex
100
AcDb3dPolylineVertex
 10
16.99716063399787
 20
-1.463489538576794
 30
0.0
 70
    32
  0
VERTEX
  5
F9
330
F2
100
AcDbEntity
  8
0
  6
DASHED
100
AcDbVertex
100
AcDb3dPolylineVertex
 10
16.99892251440163
 20
-0.9091262163839809
 30
0.0
 70
    32
  0
VERTEX
  5
FA
330
F2
100
AcDbEntity
  8
0
  6
DASHED
100
AcDbVertex
100
AcDb3dPolylineVertex
 10
16.99979061855602
 20
-0.3287809457651047
 30
0.0
 70
    32
  0
VERTEX
  5
FB
330
F2
100
AcDbEntity
  8
0
  6
DASHED
100
AcDbVertex
100
AcDb3dPolylineVertex
 10
16.9998362436999
 20
0.260832077448562
 30
0.0
 70
    32
  0
VERTEX
  5
FC
330
F2
100
AcDbEntity
  8
0
  6
DASHED
100
AcDbVertex
100
AcDb3dPolylineVertex
 10
16.9990667906333
 20
0.8429914388526382
 30
0.0
 70
    32
  0
VERTEX
  5
FD
330
F2
100
AcDbEntity
  8
0
  6
DASHED
100
AcDbVertex
100
AcDb3dPolylineVertex
 10
16.99741460180163
 20
1.401388136792512
 30
0.0
 70
    32
  0
VERTEX
  5
FE
330
F2
100
AcDbEntity
  8
0
  6
DASHED
100
AcDbVertex
100
AcDb3dPolylineVertex
 10
16.99475461448231
 20
1.919724381503586
 30
0.0
 70
    32
  0
VERTEX
  5
FF
330
F2
100
AcDbEntity
  8
0
  6
DASHED
100
AcDbVertex
100
AcDb3dPolylineVertex
 10
16.99093527730911
 20
2.383946836754989
 30
0.0
 70
    32
  0
VERTEX
  5
100
330
F2
100
AcDbEntity
  8
0
  6
DASHED
100
AcDbVertex
100
AcDb3dPolylineVertex
 10
16.98577951794243
 20
2.78002271090176
 30
0.0
 70
    32
  0
VERTEX
  5
101
330
F2
100
AcDbEntity
  8
0
  6
DASHED
100
AcDbVertex
100
AcDb3dPolylineVertex
 10
16.97917628011374
 20
3.097739460097635
 30
0.0
 70
    32
  0
VERTEX
  5
102
330
F2
100
AcDbEntity
  8
0
  6
DASHED
100
AcDbVertex
100
AcDb3dPolylineVertex
 10
16.97482531730843
 20
3.237076577431253
 30
0.0
 70
    32
  0
VERTEX
  5
103
330
F2
100
AcDbEntity
  8
0
  6
DASHED
100
AcDbVertex
100
AcDb3dPolylineVertex
 10
16.96999999999997
 20
3.347832223533856
 30
0.0
 70
    32
  0
SEQEND
  5
104
330
F2
100
AcDbEntity
  8
0
  6
DASHED
  0
LINE
  5
105
330
1F
100
AcDbEntity
  8
0
  6
DASHED
100
AcDbLine
 10
16.09652683057744
 20
-3.999999999999996
 30
0.0
 11
16.09652683057744
 21
4.000000000000002
 31
0.0
  0
LINE
  5
106
330
1F
100
AcDbEntity
  8
0
  6
DASHED
100
AcDbLine
 10
16.09652683057744
 20
4.000000000000002
 30
0.0
 11
17.55113329030733
 21
4.000000000000002
 31
0.0
  0
LINE
  5
107
330
1F
100
AcDbEntity
  8
0
  6
DASHED
100
AcDbLine
 10
16.55114255401874
 20
4.000000000000002
 30
0.0
 11
16.55114255401874
 21
-3.999999999999996
 31
0.0
  0
LINE
  5
108
330
1F
100
AcDbEntity
  8
0
  6
DASHED
100
AcDbLine
 10
17.55113329030733
 20
-3.999999999999996
 30
0.0
 11
16.09652683057744
 21
-3.999999999999996
 31
0.0
  0
LINE
  5
109
330
1F
100
AcDbEntity
  8
0
  6
DASHED
100
AcDbLine
 10
13.06837315958253
 20
7.000000000000003
 30
0.0
 11
13.06837315958253
 21
-6.999999999999996
 31
0.0
  0
POLYLINE
  5
10A
330
1F
100
AcDbEntity
  8
0
  6
DASHED
100
AcDb3dPolyline
 66
     1
 10
0.0
 20
0.0
 30
0.0
 70
     8
  0
VERTEX
  5
10B
330
10A
100
AcDbEntity
  8
0
  6
DASHED
100
AcDbVertex
100
AcDb3dPolylineVertex
 10
15.25275472679899
 20
-4.029999999999996
 30
0.0
 70
    32
  0
VERTEX
  5
10C
330
10A
100
AcDbEntity
  8
0
  6
DASHED
100
AcDbVertex
100
AcDb3dPolylineVertex
 10
15.32457873708582
 20
-3.972002013055626
 30
0.0
 70
    32
  0
VERTEX
  5
10D
330
10A
100
AcDbEntity
  8
0
  6
DASHED
100
AcDbVertex
100
AcDb3dPolylineVertex
 10
15.3929700544948
 20
-3.801135132778865
 30
0.0
 70
    32
  0
VERTEX
  5
10E
330
10A
100
AcDbEntity
  8
0
  6
DASHED
100
AcDbVertex
100
AcDb3dPolylineVertex
 10
15.45609701533578
 20
-3.520441413358393
 30
0.0
 70
    32
  0
VERTEX
  5
10F
330
10A
100
AcDbEntity
  8
0
  6
DASHED
100
AcDbVertex
100
AcDb3dPolylineVertex
 10
15.51251526237172
 20
-3.139180133768752
 30
0.0
 70
    32
  0
VERTEX
  5
110
330
10A
100
AcDbEntity
  8
0
  6
DASHED
100
AcDbVertex
100
AcDb3dPolylineVertex
 10
15.56069971127707
 20
-2.66822330197032
 30
0.0
 70
    32
  0
VERTEX
  5
111
330
10A
100
AcDbEntity
  8
0
  6
DASHED
100
AcDbVertex
100
AcDb3dPolylineVertex
 10
15.59992965148768
 20
-2.121036103725226
 30
0.0
 70
    32
  0
VERTEX
  5
112
330
10A
100
AcDbEntity
  8
0
  6
DASHED
100
AcDbVertex
100
AcDb3dPolylineVertex
 10
15.62917546941154
 20
-1.515272258764555
 30
0.0
 70
    32
  0
VERTEX
  5
113
330
10A
100
AcDbEntity
  8
0
  6
DASHED
100
AcDbVertex
100
AcDb3dPolylineVertex
 10
15.64822851495251
 20
-0.866424714486623
 30
0.0
 70
    32
  0
VERTEX
  5
114
330
10A
100
AcDbEntity
  8
0
  6
DASHED
100
AcDbVertex
100
AcDb3dPolylineVertex
 10
15.65660014459449
 20
-0.1951428833181736
 30
0.0
 70
    32
  0
VERTEX
  5
115
330
10A
100
AcDbEntity
  8
0
  6
DASHED
100
AcDbVertex
100
AcDb3dPolylineVertex
 10
15.65436744637648
 20
0.4816570250896718
 30
0.0
 70
    32
  0
VERTEX
  5
116
330
10A
100
AcDbEntity
  8
0
  6
DASHED
100
AcDbVertex
100
AcDb3dPolylineVertex
 10
15.64146907011133
 20
1.143535316863401
 30
0.0
 70
    32
  0
VERTEX
  5
117
330
10A
100
AcDbEntity
  8
0
  6
DASHED
100
AcDbVertex
100
AcDb3dPolylineVertex
 10
15.61826813624968
 20
1.773224068892046
 30
0.0
 70
    32
  0
VERTEX
  5
118
330
10A
100
AcDbEntity
  8
0
  6
DASHED
100
AcDbVertex
100
AcDb3dPolylineVertex
 10
15.58502781702454
 20
2.352806965597489
 30
0.0
 70
    32
  0
VERTEX
  5
119
330
10A
100
AcDbEntity
  8
0
  6
DASHED
100
AcDbVertex
100
AcDb3dPolylineVertex
 10
15.54252069615922
 20
2.866326705448698
 30
0.0
 70
    32
  0
VERTEX
  5
11A
330
10A
100
AcDbEntity
  8
0
  6
DASHED
100
AcDbVertex
100
AcDb3dPolylineVertex
 10
15.49130899105995
 20
3.299660202137798
 30
0.0
 70
    32
  0
VERTEX
  5
11B
330
10A
100
AcDbEntity
  8
0
  6
DASHED
100
AcDbVertex
100
AcDb3dPolylineVertex
 10
15.43272297387691
 20
3.640318451105223
 30
0.0
 70
    32
  0
VERTEX
  5
11C
330
10A
100
AcDbEntity
  8
0
  6
DASHED
100
AcDbVertex
100
AcDb3dPolylineVertex
 10
15.36768880614524
 20
3.878460795980871
 30
0.0
 70
    32
  0
VERTEX
  5
11D
330
10A
100
AcDbEntity
  8
0
  6
DASHED
100
AcDbVertex
100
AcDb3dPolylineVertex
 10
15.29814610061317
 20
4.007283374258891
 30
0.0
 70
    32
  0
VERTEX
  5
11E
330
10A
100
AcDbEntity
  8
0
  6
DASHED
100
AcDbVertex
100
AcDb3dPolylineVertex
 10
15.25272166694696
 20
4.029999988140767
 30
0.0
 70
    32
  0
SEQEND
  5
11F
330
10A
100
AcDbEntity
  8
0
  6
DASHED
  0
LINE
  5
120
330
1F
100
AcDbEntity
  8
0
  6
DASHED
100
AcDbLine
 10
0.000000999999898
 20
-5.999999999999999
 30
0.0
 11
0.000000999999898
 21
-6.999999999999999
 31
0.0
  0
LINE
  5
121
330
1F
100
AcDbEntity
  8
0
  6
DASHED
100
AcDbLine
 10
0.000000999999898
 20
7.0
 30
0.0
 11
0.000000999999898
 21
6.0
 31
0.0
  0
LINE
  5
122
330
1F
100
AcDbEntity
  8
0
  6
DASHED
100
AcDbLine
 10
-3.667067565210921
 20
7.0
 30
0.0
 11
-3.667067565210921
 21
6.0
 31
0.0
  0
LINE
  5
123
330
1F
100
AcDbEntity
  8
0
  6
DASHED
100
AcDbLine
 10
-4.335142920977347
 20
7.0
 30
0.0
 11
-4.335142920977347
 21
6.0
 31
0.0
  0
LINE
  5
124
330
1F
100
AcDbEntity
  8
0
  6
DASHED
100
AcDbLine
 10
-3.667067565210921
 20
-5.999999999999999
 30
0.0
 11
-3.667067565210921
 21
-6.999999999999999
 31
0.0
  0
LINE
  5
125
330
1F
100
AcDbEntity
  8
0
  6
DASHED
100
AcDbLine
 10
-4.335142920977347
 20
-5.999999999999999
 30
0.0
 11
-4.335142920977347
 21
-6.999999999999999
 31
0.0
  0
LINE
  5
126
330
1F
100
AcDbEntity
  8
0
  6
DASHED
100
AcDbLine
 10
-1.119998999999999
 20
7.0
 30
0.0
 11
-1.119998999999999
 21
6.0
 31
0.0
  0
LINE
  5
127
330
1F
100
AcDbEntity
  8
0
  6
DASHED
100
AcDbLine
 10
-1.119998999999999
 20
-6.0
 30
0.0
 11
-1.119998999999999
 21
-6.999999999999999
 31
0.0
  0
LINE
  5
128
330
1F
100
AcDbEntity
  8
0
  6
DASHED
100
AcDbLine
 10
0.5100009999998038
 20
7.0
 30
0.0
 11
0.5100009999998038
 21
6.0
 31
0.0
  0
LINE
  5
129
330
1F
100
AcDbEntity
  8
0
  6
DASHED
100
AcDbLine
 10
0.5100009999998038
 20
-5.999999999999999
 30
0.0
 11
0.5100009999998038
 21
-6.999999999999999
 31
0.0
  0
LINE
  5
12A
330
1F
100
AcDbEntity
  8
0
  6
DASHED
100
AcDbLine
 10
17.0100009999999
 20
7.0
 30
0.0
 11
17.0100009999999
 21
-6.999999999999999
 31
0.0
  0
POLYLINE
  5
12B
330
1F
100
AcDbEntity
  8
0
  6
DASHED
100
AcDb3dPolyline
 66
     1
 10
0.0
 20
0.0
 30
0.0
 70
     8
  0
VERTEX
  5
12C
330
12B
100
AcDbEntity
  8
0
  6
DASHED
100
AcDbVertex
100
AcDb3dPolylineVertex
 10
17.95190604883967
 20
-3.499999999999998
 30
0.0
 70
    32
  0
VERTEX
  5
12D
330
12B
100
AcDbEntity
  8
0
  6
DASHED
100
AcDbVertex
100
AcDb3dPolylineVertex
 10
17.96271621043025
 20
-3.449976628887497
 30
0.0
 70
    32
  0
VERTEX
  5
12E
330
12B
100
AcDbEntity
  8
0
  6
DASHED
100
AcDbVertex
100
AcDb3dPolylineVertex
 10
17.97216955090614
 20
-3.302699154658393
 30
0.0
 70
    32
  0
VERTEX
  5
12F
330
12B
100
AcDbEntity
  8
0
  6
DASHED
100
AcDbVertex
100
AcDb3dPolylineVertex
 10
17.98010030217982
 20
-3.060994201465331
 30
0.0
 70
    32
  0
VERTEX
  5
130
330
12B
100
AcDbEntity
  8
0
  6
DASHED
100
AcDbVertex
100
AcDb3dPolylineVertex
 10
17.98652310410091
 20
-2.732981741213223
 30
0.0
 70
    32
  0
VERTEX
  5
131
330
12B
100
AcDbEntity
  8
0
  6
DASHED
100
AcDbVertex
100
AcDb3dPolylineVertex
 10
17.99148742663849
 20
-2.326872386201749
 30
0.0
 70
    32
  0
VERTEX
  5
132
330
12B
100
AcDbEntity
  8
0
  6
DASHED
100
AcDbVertex
100
AcDb3dPolylineVertex
 10
17.99515254765594
 20
-1.855163979712671
 30
0.0
 70
    32
  0
VERTEX
  5
133
330
12B
100
AcDbEntity
  8
0
  6
DASHED
100
AcDbVertex
100
AcDb3dPolylineVertex
 10
17.99766970547902
 20
-1.33045392127151
 30
0.0
 70
    32
  0
VERTEX
  5
134
330
12B
100
AcDbEntity
  8
0
  6
DASHED
100
AcDbVertex
100
AcDb3dPolylineVertex
 10
17.99920134027498
 20
-0.7682400918395736
 30
0.0
 70
    32
  0
VERTEX
  5
135
330
12B
100
AcDbEntity
  8
0
  6
DASHED
100
AcDbVertex
100
AcDb3dPolylineVertex
 10
17.99986353823228
 20
-0.1840694420675088
 30
0.0
 70
    32
  0
VERTEX
  5
136
330
12B
100
AcDbEntity
  8
0
  6
DASHED
100
AcDbVertex
100
AcDb3dPolylineVertex
 10
17.99971078798413
 20
0.4052898024715605
 30
0.0
 70
    32
  0
VERTEX
  5
137
330
12B
100
AcDbEntity
  8
0
  6
DASHED
100
AcDbVertex
100
AcDb3dPolylineVertex
 10
17.99873289681093
 20
0.9830658513132267
 30
0.0
 70
    32
  0
VERTEX
  5
138
330
12B
100
AcDbEntity
  8
0
  6
DASHED
100
AcDbVertex
100
AcDb3dPolylineVertex
 10
17.99684709607697
 20
1.533130724048874
 30
0.0
 70
    32
  0
VERTEX
  5
139
330
12B
100
AcDbEntity
  8
0
  6
DASHED
100
AcDbVertex
100
AcDb3dPolylineVertex
 10
17.99391595518316
 20
2.039368779203636
 30
0.0
 70
    32
  0
VERTEX
  5
13A
330
12B
100
AcDbEntity
  8
0
  6
DASHED
100
AcDbVertex
100
AcDb3dPolylineVertex
 10
17.98978535843731
 20
2.488120706645824
 30
0.0
 70
    32
  0
VERTEX
  5
13B
330
12B
100
AcDbEntity
  8
0
  6
DASHED
100
AcDbVertex
100
AcDb3dPolylineVertex
 10
17.98428073706773
 20
2.865749320185016
 30
0.0
 70
    32
  0
VERTEX
  5
13C
330
12B
100
AcDbEntity
  8
0
  6
DASHED
100
AcDbVertex
100
AcDb3dPolylineVertex
 10
17.9773057653989
 20
3.162603484375251
 30
0.0
 70
    32
  0
VERTEX
  5
13D
330
12B
100
AcDbEntity
  8
0
  6
DASHED
100
AcDbVertex
100
AcDb3dPolylineVertex
 10
17.96878668349138
 20
3.369072083626535
 30
0.0
 70
    32
  0
VERTEX
  5
13E
330
12B
100
AcDbEntity
  8
0
  6
DASHED
100
AcDbVertex
100
AcDb3dPolylineVertex
 10
17.95881393255977
 20
3.480589255266879
 30
0.0
 70
    32
  0
VERTEX
  5
13F
330
12B
100
AcDbEntity
  8
0
  6
DASHED
100
AcDbVertex
100
AcDb3dPolylineVertex
 10
17.95190127985013
 20
3.499999991332123
 30
0.0
 70
    32
  0
SEQEND
  5
140
330
12B
100
AcDbEntity
  8
0
  6
DASHED
  0
LINE
  5
141
330
1F
100
AcDbEntity
  8
0
  6
DASHED
100
AcDbLine
 10
17.09651952058305
 20
-3.999999999999996
 30
0.0
 11
17.09651952058305
 21
4.000000000000002
 31
0.0
  0
LINE
  5
142
330
1F
100
AcDbEntity
  8
0
  6
DASHED
100
AcDbLine
 10
17.55113329030733
 20
4.000000000000002
 30
0.0
 11
17.55113329030733
 21
-3.999999999999996
 31
0.0
  0
LINE
  5
143
330
1F
100
AcDbEntity
  8
0
  6
DASHED
100
AcDbLine
 10
14.03245398166825
 20
8.000000000000005
 30
0.0
 11
14.03245398166825
 21
-7.999999999999995
 31
0.0
  0
POLYLINE
  5
144
330
1F
100
AcDbEntity
  8
0
  6
DASHED
100
AcDb3dPolyline
 66
     1
 10
0.0
 20
0.0
 30
0.0
 70
     8
  0
VERTEX
  5
145
330
144
100
AcDbEntity
  8
0
  6
DASHED
100
AcDbVertex
100
AcDb3dPolylineVertex
 10
15.85868899957492
 20
-2.002433792729461
 30
0.0
 70
    32
  0
VERTEX
  5
146
330
144
100
AcDbEntity
  8
0
  6
DASHED
100
AcDbVertex
100
AcDb3dPolylineVertex
 10
15.85189551787284
 20
-1.897914021817124
 30
0.0
 70
    32
  0
VERTEX
  5
147
330
144
100
AcDbEntity
  8
0
  6
DASHED
100
AcDbVertex
100
AcDb3dPolylineVertex
 10
15.81981853693222
 20
-1.271847020955067
 30
0.0
 70
    32
  0
VERTEX
  5
148
330
144
100
AcDbEntity
  8
0
  6
DASHED
100
AcDbVertex
100
AcDb3dPolylineVertex
 10
15.80082616237914
 20
-0.6131559734783141
 30
0.0
 70
    32
  0
VERTEX
  5
149
330
144
100
AcDbEntity
  8
0
  6
DASHED
100
AcDbVertex
100
AcDb3dPolylineVertex
 10
15.79519503865662
 20
0.0629790023408439
 30
0.0
 70
    32
  0
VERTEX
  5
14A
330
144
100
AcDbEntity
  8
0
  6
DASHED
100
AcDbVertex
100
AcDb3dPolylineVertex
 10
15.8032878869145
 20
0.7341891359998492
 30
0.0
 70
    32
  0
VERTEX
  5
14B
330
144
100
AcDbEntity
  8
0
  6
DASHED
100
AcDbVertex
100
AcDb3dPolylineVertex
 10
15.82452517174709
 20
1.384710373020926
 30
0.0
 70
    32
  0
VERTEX
  5
14C
330
144
100
AcDbEntity
  8
0
  6
DASHED
100
AcDbVertex
100
AcDb3dPolylineVertex
 10
15.85829311766207
 20
1.995763679007777
 30
0.0
 70
    32
  0
VERTEX
  5
14D
330
144
100
AcDbEntity
  8
0
  6
DASHED
100
AcDbVertex
100
AcDb3dPolylineVertex
 10
15.90315119551314
 20
2.550918866537121
 30
0.0
 70
    32
  0
VERTEX
  5
14E
330
144
100
AcDbEntity
  8
0
  6
DASHED
100
AcDbVertex
100
AcDb3dPolylineVertex
 10
15.95789237088142
 20
3.035993361892123
 30
0.0
 70
    32
  0
VERTEX
  5
14F
330
144
100
AcDbEntity
  8
0
  6
DASHED
100
AcDbVertex
100
AcDb3dPolylineVertex
 10
16.02028026595814
 20
3.435980387491806
 30
0.0
 70
    32
  0
VERTEX
  5
150
330
144
100
AcDbEntity
  8
0
  6
DASHED
100
AcDbVertex
100
AcDb3dPolylineVertex
 10
16.08875243753386
 20
3.740372193426368
 30
0.0
 70
    32
  0
VERTEX
  5
151
330
144
100
AcDbEntity
  8
0
  6
DASHED
100
AcDbVertex
100
AcDb3dPolylineVertex
 10
16.16063359079046
 20
3.939261861172921
 30
0.0
 70
    32
  0
VERTEX
  5
152
330
144
100
AcDbEntity
  8
0
  6
DASHED
100
AcDbVertex
100
AcDb3dPolylineVertex
 10
16.20999999999998
 20
4.010361276651253
 30
0.0
 70
    32
  0
SEQEND
  5
153
330
144
100
AcDbEntity
  8
0
  6
DASHED
  0
POLYLINE
  5
154
330
1F
100
AcDbEntity
  8
0
  6
DASHED
100
AcDb3dPolyline
 66
     1
 10
0.0
 20
0.0
 30
0.0
 70
     8
  0
VERTEX
  5
155
330
154
100
AcDbEntity
  8
0
  6
DASHED
100
AcDbVertex
100
AcDb3dPolylineVertex
 10
16.21
 20
-4.010361276651245
 30
0.0
 70
    32
  0
VERTEX
  5
156
330
154
100
AcDbEntity
  8
0
  6
DASHED
100
AcDbVertex
100
AcDb3dPolylineVertex
 10
16.15217144771932
 20
-3.921840769942768
 30
0.0
 70
    32
  0
VERTEX
  5
157
330
154
100
AcDbEntity
  8
0
  6
DASHED
100
AcDbVertex
100
AcDb3dPolylineVertex
 10
16.08012418130653
 20
-3.708550166535944
 30
0.0
 70
    32
  0
VERTEX
  5
158
330
154
100
AcDbEntity
  8
0
  6
DASHED
100
AcDbVertex
100
AcDb3dPolylineVertex
 10
16.01180653121041
 20
-3.389289180661468
 30
0.0
 70
    32
  0
VERTEX
  5
159
330
154
100
AcDbEntity
  8
0
  6
DASHED
100
AcDbVertex
100
AcDb3dPolylineVertex
 10
15.94962106342178
 20
-2.972090563517716
 30
0.0
 70
    32
  0
VERTEX
  5
15A
330
154
100
AcDbEntity
  8
0
  6
DASHED
100
AcDbVertex
100
AcDb3dPolylineVertex
 10
15.89555409242607
 20
-2.469581868393722
 30
0.0
 70
    32
  0
VERTEX
  5
15B
330
154
100
AcDbEntity
  8
0
  6
DASHED
100
AcDbVertex
100
AcDb3dPolylineVertex
 10
15.85868899957492
 20
-2.002433792729461
 30
0.0
 70
    32
  0
SEQEND
  5
15C
330
154
100
AcDbEntity
  8
0
  6
DASHED
  0
LINE
  5
15D
330
1F
100
AcDbEntity
  8
0
  6
DASHED
100
AcDbLine
 10
16.21000000000002
 20
4.010361276651251
 30
0.0
 11
16.25275002472615
 21
4.030000000000003
 31
0.0
  0
LINE
  5
15E
330
1F
100
AcDbEntity
  8
0
  6
DASHED
100
AcDbLine
 10
18.00998700000017
 20
-7.999999999999997
 30
0.0
 11
18.00998700000017
 21
8.000000000000001
 31
0.0
  0
LINE
  5
15F
330
1F
100
AcDbEntity
  8
0
  6
DASHED
100
AcDbLine
 10
-4.325410998558305
 20
7.0
 30
0.0
 11
-4.325410998558305
 21
6.0
 31
0.0
  0
LINE
  5
160
330
1F
100
AcDbEntity
  8
0
  6
DASHED
100
AcDbLine
 10
-4.325410998558305
 20
-5.999999999999999
 30
0.0
 11
-4.325410998558305
 21
-6.999999999999999
 31
0.0
  0
LINE
  5
161
330
1F
100
AcDbEntity
  8
0
  6
DASHED
100
AcDbLine
 10
13.01000099999988
 20
7.0
 30
0.0
 11
13.0100009999999
 21
-6.999999999999999
 31
0.0
  0
LINE
  5
162
330
1F
100
AcDbEntity
  8
0
  6
DASHED
100
AcDbLine
 10
-4.335142920977347
 20
-5.999999999999999
 30
0.0
 11
12.0100009999999
 21
-5.999999999999999
 31
0.0
  0
LINE
  5
163
330
1F
100
AcDbEntity
  8
0
  6
DASHED
100
AcDbLine
 10
-3.675133292308313
 20
7.0
 30
0.0
 11
-3.675133292308313
 21
6.0
 31
0.0
  0
LINE
  5
164
330
1F
100
AcDbEntity
  8
0
  6
DASHED
100
AcDbLine
 10
-4.335142920977347
 20
6.0
 30
0.0
 11
12.0100009999999
 21
6.0
 31
0.0
  0
LINE
  5
165
330
1F
100
AcDbEntity
  8
0
  6
DASHED
100
AcDbLine
 10
12.0100009999999
 20
6.0
 30
0.0
 11
12.0100009999999
 21
-5.999999999999999
 31
0.0
  0
LINE
  5
166
330
1F
100
AcDbEntity
  8
0
  6
DASHED
100
AcDbLine
 10
-3.675133292308313
 20
-5.999999999999999
 30
0.0
 11
-3.675133292308313
 21
-6.999999999999999
 31
0.0
  0
LINE
  5
167
330
1F
100
AcDbEntity
  8
0
  6
DASHED
100
AcDbLine
 10
1.660001
 20
8.0
 30
0.0
 11
1.660001
 21
7.0
 31
0.0
  0
LINE
  5
168
330
1F
100
AcDbEntity
  8
0
  6
DASHED
100
AcDbLine
 10
1.660001
 20
-6.999999999999997
 30
0.0
 11
1.660001
 21
-8.0
 31
0.0
  0
LINE
  5
169
330
1F
100
AcDbEntity
  8
0
  6
DASHED
100
AcDbLine
 10
17.92183930217834
 20
8.0
 30
0.0
 11
17.92183930217834
 21
-8.0
 31
0.0
  0
LINE
  5
16A
330
1F
100
AcDbEntity
  8
0
  6
DASHED
100
AcDbLine
 10
13.11
 20
7.0
 30
0.0
 11
13.11
 21
-7.0
 31
0.0
  0
LINE
  5
16B
330
1F
100
AcDbEntity
  8
0
  6
DASHED
100
AcDbLine
 10
14.11
 20
-8.0
 30
0.0
 11
14.11
 21
8.0
 31
0.0
  0
LINE
  5
16C
330
1F
100
AcDbEntity
  8
0
  6
DASHED
100
AcDbLine
 10
-1.889998999999899
 20
8.0
 30
0.0
 11
18.00998700000017
 21
8.000000000000001
 31
0.0
  0
LINE
  5
16D
330
1F
100
AcDbEntity
  8
0
  6
DASHED
100
AcDbLine
 10
-1.889998999999899
 20
8.0
 30
0.0
 11
-1.889998999999899
 21
7.0
 31
0.0
  0
LINE
  5
16E
330
1F
100
AcDbEntity
  8
0
  6
DASHED
100
AcDbLine
 10
-4.335142920977347
 20
7.0
 30
0.0
 11
17.0100009999999
 21
7.0
 31
0.0
  0
LINE
  5
16F
330
1F
100
AcDbEntity
  8
0
  6
DASHED
100
AcDbLine
 10
-1.682433049797226
 20
-6.999999999999999
 30
0.0
 11
-1.682433049797226
 21
7.0
 31
0.0
  0
LINE
  5
170
330
1F
100
AcDbEntity
  8
0
  6
DASHED
100
AcDbLine
 10
-4.335142920977347
 20
-6.999999999999999
 30
0.0
 11
17.0100009999999
 21
-6.999999999999999
 31
0.0
  0
LINE
  5
171
330
1F
100
AcDbEntity
  8
0
  6
DASHED
100
AcDbLine
 10
-1.889998999999899
 20
-7.0
 30
0.0
 11
-1.889998999999899
 21
-8.0
 31
0.0
  0
LINE
  5
172
330
1F
100
AcDbEntity
  8
0
  6
DASHED
100
AcDbLine
 10
-1.889998999999899
 20
-8.0
 30
0.0
 11
18.00998700000017
 21
-7.999999999999997
 31
0.0
  0
LINE
  5
173
330
1F
100
AcDbEntity
  8
0
  6
DASHED
100
AcDbLine
 10
-0.9999999999999975
 20
-17.47140520965615
 30
0.0
 11
-0.9999999999999952
 21
17.47140520965615
 31
0.0
  0
CIRCLE
  5
174
330
1F
100
AcDbEntity
  8
0
  6
DASHED
100
AcDbCircle
 10
0.0
 20
-0.0000000000000007
 30
0.0
 40
15.99999999999999
  0
LINE
  5
175
330
1F
100
AcDbEntity
  8
0
  6
CENTER
100
AcDbLine
 10
2.769999999999998
 20
-26.0
 30
0.0
 11
8.23
 21
-26.0
 31
0.0
  0
LINE
  5
176
330
1F
100
AcDbEntity
  8
0
  6
CENTER
100
AcDbLine
 10
5.5
 20
-28.73
 30
0.0
 11
5.5
 21
-23.27
 31
0.0
  0
LINE
  5
177
330
1F
100
AcDbEntity
  8
0
  6
CENTER
100
AcDbLine
 10
2.769999999999998
 20
26.0
 30
0.0
 11
8.23
 21
26.0
 31
0.0
  0
LINE
  5
178
330
1F
100
AcDbEntity
  8
0
  6
CENTER
100
AcDbLine
 10
5.5
 20
23.27
 30
0.0
 11
5.5
 21
28.73
 31
0.0
  0
LINE
  5
179
330
1F
100
AcDbEntity
  8
0
  6
CENTER
100
AcDbLine
 10
0.0
 20
-18.375
 30
0.0
 11
0.0
 21
18.375
 31
0.0
  0
LINE
  5
17A
330
1F
100
AcDbEntity
  8
0
  6
CENTER
100
AcDbLine
 10
19.105
 20
0.0000000000000017
 30
0.0
 11
-18.375
 21
-0.0000000000000008
 31
0.0
  0
CIRCLE
  5
17B
330
1F
100
AcDbEntity
  8
0
  6
Continuous
100
AcDbCircle
 10
5.5
 20
-26.0
 30
0.0
 40
2.6
  0
LINE
  5
17C
330
1F
100
AcDbEntity
  8
0
  6
Continuous
100
AcDbLine
 10
-0.9999999999999952
 20
17.47140520965615
 30
0.0
 11
-0.9999999999999944
 21
30.57641799999995
 31
0.0
  0
LINE
  5
17D
330
1F
100
AcDbEntity
  8
0
  6
Continuous
100
AcDbLine
 10
-0.9999999999999984
 20
-30.57642000000005
 30
0.0
 11
-0.9999999999999975
 21
-17.47140520965615
 31
0.0
  0
ARC
  5
17E
330
1F
100
AcDbEntity
  8
0
  6
Continuous
100
AcDbCircle
 10
1.999999999968343
 20
-30.57643378280122
 30
0.0
 40
3.000000000000003
100
AcDbArc
 50
179.9997367675865
 51
268.2242803471652
  0
ARC
  5
17F
330
1F
100
AcDbEntity
  8
0
  6
Continuous
100
AcDbCircle
 10
3.456387353900487
 20
16.40099628606772
 30
0.0
 40
50.00000000000167
100
AcDbArc
 50
268.2242926541127
 51
281.0787821729779
  0
ARC
  5
180
330
1F
100
AcDbEntity
  8
0
  6
Continuous
100
AcDbCircle
 10
12.10352292345418
 20
-27.7603787654625
 30
0.0
 40
4.999999999999959
100
AcDbArc
 50
281.0787779155091
 51
343.0093977210492
  0
ARC
  5
181
330
1F
100
AcDbEntity
  8
0
  6
Continuous
100
AcDbCircle
 10
-78.74999400000044
 20
-0.0000029999999267
 30
0.0
 40
100.0000000000003
100
AcDbArc
 50
343.0094184848262
 51
16.99059316698852
  0
ARC
  5
182
330
1F
100
AcDbEntity
  8
0
  6
Continuous
100
AcDbCircle
 10
12.10351674854411
 20
27.76039297455634
 30
0.0
 40
5.000000000000007
100
AcDbArc
 50
16.9905931669874
 51
78.92124102423027
  0
ARC
  5
183
330
1F
100
AcDbEntity
  8
0
  6
Continuous
100
AcDbCircle
 10
3.456383132493086
 20
-16.40098245948516
 30
0.0
 40
50.00000000000196
100
AcDbArc
 50
78.92122200205534
 51
91.77570310681051
  0
ARC
  5
184
330
1F
100
AcDbEntity
  8
0
  6
Continuous
100
AcDbCircle
 10
1.9999999998526
 20
30.576447740252
 30
0.0
 40
3.000000000000008
100
AcDbArc
 50
91.77572966102145
 51
180.0005679962994
  0
CIRCLE
  5
185
330
1F
100
AcDbEntity
  8
0
  6
Continuous
100
AcDbCircle
 10
5.5
 20
26.0
 30
0.0
 40
2.6
  0
CIRCLE
  5
186
330
1F
100
AcDbEntity
  8
0
  6
Continuous
100
AcDbCircle
 10
0.0
 20
-0.0000000000000008
 30
0.0
 40
17.5
  0
POINT
  5
187
330
1F
100
AcDbEntity
  8
CONNECTIONPOINTS
  6
Continuous
100
AcDbPoint
 10
0.0
 20
6.0
 30
-17.54
  0
POINT
  5
188
330
1F
100
AcDbEntity
  8
CONNECTIONPOINTS
  6
Continuous
100
AcDbPoint
 10
0.0
 20
0.0
 30
0.0
  0
POINT
  5
189
330
1F
100
AcDbEntity
  8
CONNECTIONPOINTS
  6
Continuous
100
AcDbPoint
 10
0.0
 20
-0.0000000000000031
 30
50.0
  0
ENDSEC
  0
SECTION
  2
OBJECTS
  0
DICTIONARY
  5
C
330
0
100
AcDbDictionary
281
     1
  3
ACAD_CIP_PREVIOUS_PRODUCT_INFO
350
1AA
  3
ACAD_COLOR
350
1A2
  3
ACAD_GROUP
350
D
  3
ACAD_LAYOUT
350
1A
  3
ACAD_MATERIAL
350
43
  3
ACAD_MLEADERSTYLE
350
18C
  3
ACAD_MLINESTYLE
350
17
  3
ACAD_PLOTSETTINGS
350
19
  3
ACAD_PLOTSTYLENAME
350
19E
  3
ACAD_SCALELIST
350
47
  3
ACAD_TABLESTYLE
350
1A3
  3
ACAD_VISUALSTYLE
350
2A
  3
ACDB_RECOMPOSE_DATA
350
3AC
  3
ACDBVARIABLEDICTIONARY
350
18A
  3
DWGPROPS
350
3AD
  0
DICTIONARY
  5
1AE
330
10
100
AcDbDictionary
280
     1
281
     1
  3
ADSK_XREC_LAYER_RECONCILED
360
1AF
  0
DICTIONARY
  5
1B0
330
74
100
AcDbDictionary
280
     1
281
     1
  3
ADSK_XREC_LAYER_RECONCILED
360
1B1
  0
XRECORD
  5
1AA
102
{ACAD_REACTORS
330
C
102
}
330
C
100
AcDbXrecord
280
     1
300
ACD
300
2012
300
85730ACD_2012_0F
  0
DICTIONARY
  5
1A2
102
{ACAD_REACTORS
330
C
102
}
330
C
100
AcDbDictionary
281
     1
  0
DICTIONARY
  5
D
102
{ACAD_REACTORS
330
C
102
}
330
C
100
AcDbDictionary
281
     1
  0
DICTIONARY
  5
1A
102
{ACAD_REACTORS
330
C
102
}
330
C
100
AcDbDictionary
281
     1
  3
Layout1
350
1A7
  3
Model
350
1A6
  0
DICTIONARY
  5
43
102
{ACAD_REACTORS
330
C
102
}
330
C
100
AcDbDictionary
281
     1
  3
BYBLOCK
350
45
  3
BYLAYER
350
44
  3
GLOBAL
350
46
  0
DICTIONARY
  5
18C
102
{ACAD_REACTORS
330
C
102
}
330
C
100
AcDbDictionary
281
     1
  3
Standard
350
1A5
  0
DICTIONARY
  5
17
102
{ACAD_REACTORS
330
C
102
}
330
C
100
AcDbDictionary
281
     1
  3
STANDARD
350
18
  0
DICTIONARY
  5
19
102
{ACAD_REACTORS
330
C
102
}
330
C
100
AcDbDictionary
281
     1
  0
ACDBDICTIONARYWDFLT
  5
19E
102
{ACAD_REACTORS
330
C
102
}
330
C
100
AcDbDictionary
281
     1
  3
Normal
350
19F
100
AcDbDictionaryWithDefault
340
19F
  0
DICTIONARY
  5
47
102
{ACAD_REACTORS
330
C
102
}
330
C
100
AcDbDictionary
281
     1
  3
A0
350
48
  3
A1
350
49
  3
A2
350
4A
  3
A3
350
4B
  3
A4
350
4C
  3
A5
350
4D
  3
A6
350
4E
  3
A7
350
4F
  3
A8
350
50
  3
A9
350
51
  3
B0
350
52
  3
B1
350
53
  3
B2
350
54
  3
B3
350
55
  3
B4
350
56
  3
B5
350
57
  3
B6
350
58
  3
B7
350
59
  3
B8
350
5A
  3
B9
350
5B
  3
C0
350
5C
  3
C1
350
5D
  3
C2
350
5E
  3
C3
350
5F
  3
C4
350
60
  3
C5
350
61
  3
C6
350
62
  3
C7
350
63
  3
C8
350
64
  3
C9
350
65
  3
D0
350
66
  3
D1
350
67
  3
D2
350
68
  0
DICTIONARY
  5
1A3
102
{ACAD_REACTORS
330
C
102
}
330
C
100
AcDbDictionary
281
     1
  3
Standard
350
1A4
  0
DICTIONARY
  5
2A
102
{ACAD_REACTORS
330
C
102
}
330
C
100
AcDbDictionary
281
     1
  3
2DWIREFRAME
350
2F
  3
BASIC
350
32
  3
BRIGHTEN
350
36
  3
COLORCHANGE
350
3A
  3
CONCEPTUAL
350
34
  3
DIM
350
35
  3
EDGECOLOROFF
350
3D
  3
FACEPATTERN
350
39
  3
FLAT
350
2B
  3
FLATWITHEDGES
350
2C
  3
GOURAUD
350
2D
  3
GOURAUDWITHEDGES
350
2E
  3
HIDDEN
350
31
  3
JITTEROFF
350
3B
  3
LINEPATTERN
350
38
  3
OVERHANGOFF
350
3C
  3
REALISTIC
350
33
  3
SHADED
350
42
  3
Shaded with edges
350
1A1
  3
SHADED_WITH_EDGES
350
41
  3
Shades of Gray
350
1A0
  3
SHADES_OF_GRAY
350
3E
  3
SKETCHY
350
3F
  3
THICKEN
350
37
  3
WIREFRAME
350
30
  3
X-RAY
350
40
  0
XRECORD
  5
3AC
102
{ACAD_REACTORS
330
C
102
}
330
C
100
AcDbXrecord
280
     1
 90
        1
330
1A4
  0
DICTIONARY
  5
18A
102
{ACAD_REACTORS
330
C
102
}
330
C
100
AcDbDictionary
281
     1
  3
CANNOSCALE
350
194
  3
CMLEADERSTYLE
350
1B3
  3
CTABLESTYLE
350
1B2
  3
DIMASSOC
350
191
  3
HIDETEXT
350
192
  3
INDEXCTL
350
1B5
  3
MSLTSCALE
350
195
  3
PSOLHEIGHT
350
1B7
  3
PSOLWIDTH
350
1B6
  3
SORTENTS
350
1B4
  3
XCLIPFRAME
350
1B8
  0
XRECORD
  5
3AD
102
{ACAD_REACTORS
330
C
102
}
330
C
100
AcDbXrecord
280
     1
  1
DWGPROPS COOKIE
  2

  3

  4

  6
File was created by Cadenas
  7

  8
Vijay
  9

300
NN=Sensys 8645i, Base 12.5 mm
301
NT=Sensys 8645i, Base 12.5 mm
302
NB=9071205
303
NBSYN=$ARTICLENO.
304
LINA=9071205
305
MOUNTINGOPTION=Full Overlay
306
VERSION=TH 52
307
ARTICLENO=9071205
308
A=1.000
309
B=1.000
 40
0.0012641319444444
 41
2457260.636263148
 42
2457261.502801945
  1

 90
       10
  0
XRECORD
  5
1AF
102
{ACAD_REACTORS
330
1AE
102
}
330
1AE
100
AcDbXrecord
280
     1
290
     1
  0
XRECORD
  5
1B1
102
{ACAD_REACTORS
330
1B0
102
}
330
1B0
100
AcDbXrecord
280
     1
290
     1
  0
LAYOUT
  5
1A7
102
{ACAD_XDICTIONARY
360
3E6
102
}
102
{ACAD_REACTORS
330
1A
102
}
330
1A
100
AcDbPlotSettings
  1

  2
Microsoft XPS Document Writer
  4

  6

 40
0.0
 41
0.0
 42
0.0
 43
0.0
 44
0.0
 45
0.0
 46
0.0
 47
0.0
 48
0.0
 49
0.0
140
0.0
141
0.0
142
1.0
143
1.0
 70
   688
 72
     0
 73
     0
 74
     5
  7

 75
    16
147
1.0
148
0.0
149
0.0
100
AcDbLayout
  1
Layout1
 70
     1
 71
     1
 10
0.0
 20
0.0
 11
420.0
 21
297.0
 12
0.0
 22
0.0
 32
0.0
 14
1.000000000000000E+20
 24
1.000000000000000E+20
 34
1.000000000000000E+20
 15
-1.000000000000000E+20
 25
-1.000000000000000E+20
 35
-1.000000000000000E+20
146
0.0
 13
0.0
 23
0.0
 33
0.0
 16
1.0
 26
0.0
 36
0.0
 17
0.0
 27
1.0
 37
0.0
 76
     0
330
1B
  0
LAYOUT
  5
1A6
102
{ACAD_XDICTIONARY
360
3E4
102
}
102
{ACAD_REACTORS
330
1A
102
}
330
1A
100
AcDbPlotSettings
  1

  2
Microsoft XPS Document Writer
  4

  6

 40
0.0
 41
0.0
 42
0.0
 43
0.0
 44
0.0
 45
0.0
 46
0.0
 47
0.0
 48
0.0
 49
0.0
140
0.0
141
0.0
142
1.0
143
1.0
 70
  1712
 72
     0
 73
     0
 74
     0
  7

 75
     0
147
1.0
148
0.0
149
0.0
100
AcDbLayout
  1
Model
 70
     1
 71
     0
 10
0.0
 20
0.0
 11
12.0
 21
9.0
 12
0.0
 22
0.0
 32
0.0
 14
0.0
 24
0.0
 34
0.0
 15
0.0
 25
0.0
 35
0.0
146
0.0
 13
0.0
 23
0.0
 33
0.0
 16
1.0
 26
0.0
 36
0.0
 17
0.0
 27
1.0
 37
0.0
 76
     0
330
1F
331
29
  0
MATERIAL
  5
45
102
{ACAD_XDICTIONARY
360
198
102
}
102
{ACAD_REACTORS
330
43
102
}
330
43
100
AcDbMaterial
  1
BYBLOCK
  0
MATERIAL
  5
44
102
{ACAD_XDICTIONARY
360
196
102
}
102
{ACAD_REACTORS
330
43
102
}
330
43
100
AcDbMaterial
  1
BYLAYER
  0
MATERIAL
  5
46
102
{ACAD_XDICTIONARY
360
19A
102
}
102
{ACAD_REACTORS
330
43
102
}
330
43
100
AcDbMaterial
  1
GLOBAL
  0
MLEADERSTYLE
  5
1A5
102
{ACAD_REACTORS
330
18C
102
}
330
18C
100
AcDbMLeaderStyle
170
     2
171
     1
172
     0
 90
        2
 40
0.0
 41
0.0
173
     1
 91
-1056964608
340
14
 92
       -2
290
     1
 42
0.09
291
     1
 43
0.36
  3
Standard
 44
0.18
300

342
11
174
     1
178
     6
175
     1
176
     0
 93
-1056964608
 45
0.18
292
     0
297
     0
 46
0.18
 94
-1056964608
 47
1.0
 49
1.0
140
1.0
293
     1
141
0.0
294
     1
177
     0
142
1.0
295
     0
296
     0
143
0.125
1001
ACAD_MLEADERVER
1070
     2
  0
MLINESTYLE
  5
18
102
{ACAD_REACTORS
330
17
102
}
330
17
100
AcDbMlineStyle
  2
STANDARD
 70
     0
  3

 62
   256
 51
90.0
 52
90.0
 71
     2
 49
0.5
 62
   256
  6
BYLAYER
 49
-0.5
 62
   256
  6
BYLAYER
  0
ACDBPLACEHOLDER
  5
19F
102
{ACAD_REACTORS
330
19E
102
}
330
19E
  0
SCALE
  5
48
102
{ACAD_REACTORS
330
47
102
}
330
47
100
AcDbScale
 70
     0
300
1:1
140
1.0
141
1.0
290
     1
  0
SCALE
  5
49
102
{ACAD_REACTORS
330
47
102
}
330
47
100
AcDbScale
 70
     0
300
1:2
140
1.0
141
2.0
290
     0
  0
SCALE
  5
4A
102
{ACAD_REACTORS
330
47
102
}
330
47
100
AcDbScale
 70
     0
300
1:4
140
1.0
141
4.0
290
     0
  0
SCALE
  5
4B
102
{ACAD_REACTORS
330
47
102
}
330
47
100
AcDbScale
 70
     0
300
1:5
140
1.0
141
5.0
290
     0
  0
SCALE
  5
4C
102
{ACAD_REACTORS
330
47
102
}
330
47
100
AcDbScale
 70
     0
300
1:8
140
1.0
141
8.0
290
     0
  0
SCALE
  5
4D
102
{ACAD_REACTORS
330
47
102
}
330
47
100
AcDbScale
 70
     0
300
1:10
140
1.0
141
10.0
290
     0
  0
SCALE
  5
4E
102
{ACAD_REACTORS
330
47
102
}
330
47
100
AcDbScale
 70
     0
300
1:16
140
1.0
141
16.0
290
     0
  0
SCALE
  5
4F
102
{ACAD_REACTORS
330
47
102
}
330
47
100
AcDbScale
 70
     0
300
1:20
140
1.0
141
20.0
290
     0
  0
SCALE
  5
50
102
{ACAD_REACTORS
330
47
102
}
330
47
100
AcDbScale
 70
     0
300
1:30
140
1.0
141
30.0
290
     0
  0
SCALE
  5
51
102
{ACAD_REACTORS
330
47
102
}
330
47
100
AcDbScale
 70
     0
300
1:40
140
1.0
141
40.0
290
     0
  0
SCALE
  5
52
102
{ACAD_REACTORS
330
47
102
}
330
47
100
AcDbScale
 70
     0
300
1:50
140
1.0
141
50.0
290
     0
  0
SCALE
  5
53
102
{ACAD_REACTORS
330
47
102
}
330
47
100
AcDbScale
 70
     0
300
1:100
140
1.0
141
100.0
290
     0
  0
SCALE
  5
54
102
{ACAD_REACTORS
330
47
102
}
330
47
100
AcDbScale
 70
     0
300
2:1
140
2.0
141
1.0
290
     0
  0
SCALE
  5
55
102
{ACAD_REACTORS
330
47
102
}
330
47
100
AcDbScale
 70
     0
300
4:1
140
4.0
141
1.0
290
     0
  0
SCALE
  5
56
102
{ACAD_REACTORS
330
47
102
}
330
47
100
AcDbScale
 70
     0
300
8:1
140
8.0
141
1.0
290
     0
  0
SCALE
  5
57
102
{ACAD_REACTORS
330
47
102
}
330
47
100
AcDbScale
 70
     0
300
10:1
140
10.0
141
1.0
290
     0
  0
SCALE
  5
58
102
{ACAD_REACTORS
330
47
102
}
330
47
100
AcDbScale
 70
     0
300
100:1
140
100.0
141
1.0
290
     0
  0
SCALE
  5
59
102
{ACAD_REACTORS
330
47
102
}
330
47
100
AcDbScale
 70
     0
300
1/128" = 1'-0"
140
0.0078125
141
12.0
290
     0
  0
SCALE
  5
5A
102
{ACAD_REACTORS
330
47
102
}
330
47
100
AcDbScale
 70
     0
300
1/64" = 1'-0"
140
0.015625
141
12.0
290
     0
  0
SCALE
  5
5B
102
{ACAD_REACTORS
330
47
102
}
330
47
100
AcDbScale
 70
     0
300
1/32" = 1'-0"
140
0.03125
141
12.0
290
     0
  0
SCALE
  5
5C
102
{ACAD_REACTORS
330
47
102
}
330
47
100
AcDbScale
 70
     0
300
1/16" = 1'-0"
140
0.0625
141
12.0
290
     0
  0
SCALE
  5
5D
102
{ACAD_REACTORS
330
47
102
}
330
47
100
AcDbScale
 70
     0
300
3/32" = 1'-0"
140
0.09375
141
12.0
290
     0
  0
SCALE
  5
5E
102
{ACAD_REACTORS
330
47
102
}
330
47
100
AcDbScale
 70
     0
300
1/8" = 1'-0"
140
0.125
141
12.0
290
     0
  0
SCALE
  5
5F
102
{ACAD_REACTORS
330
47
102
}
330
47
100
AcDbScale
 70
     0
300
3/16" = 1'-0"
140
0.1875
141
12.0
290
     0
  0
SCALE
  5
60
102
{ACAD_REACTORS
330
47
102
}
330
47
100
AcDbScale
 70
     0
300
1/4" = 1'-0"
140
0.25
141
12.0
290
     0
  0
SCALE
  5
61
102
{ACAD_REACTORS
330
47
102
}
330
47
100
AcDbScale
 70
     0
300
3/8" = 1'-0"
140
0.375
141
12.0
290
     0
  0
SCALE
  5
62
102
{ACAD_REACTORS
330
47
102
}
330
47
100
AcDbScale
 70
     0
300
1/2" = 1'-0"
140
0.5
141
12.0
290
     0
  0
SCALE
  5
63
102
{ACAD_REACTORS
330
47
102
}
330
47
100
AcDbScale
 70
     0
300
3/4" = 1'-0"
140
0.75
141
12.0
290
     0
  0
SCALE
  5
64
102
{ACAD_REACTORS
330
47
102
}
330
47
100
AcDbScale
 70
     0
300
1" = 1'-0"
140
1.0
141
12.0
290
     0
  0
SCALE
  5
65
102
{ACAD_REACTORS
330
47
102
}
330
47
100
AcDbScale
 70
     0
300
1-1/2" = 1'-0"
140
1.5
141
12.0
290
     0
  0
SCALE
  5
66
102
{ACAD_REACTORS
330
47
102
}
330
47
100
AcDbScale
 70
     0
300
3" = 1'-0"
140
3.0
141
12.0
290
     0
  0
SCALE
  5
67
102
{ACAD_REACTORS
330
47
102
}
330
47
100
AcDbScale
 70
     0
300
6" = 1'-0"
140
6.0
141
12.0
290
     0
  0
SCALE
  5
68
102
{ACAD_REACTORS
330
47
102
}
330
47
100
AcDbScale
 70
     0
300
1'-0" = 1'-0"
140
12.0
141
12.0
290
     0
  0
TABLESTYLE
  5
1A4
102
{ACAD_XDICTIONARY
360
3AA
102
}
102
{ACAD_REACTORS
330
1A3
102
}
330
1A3
100
AcDbTableStyle
  3
Standard
 70
     0
 71
     0
 40
0.06
 41
0.06
280
     0
281
     0
  7
STANDARD
140
0.18
170
     2
 62
     0
 63
     7
283
     0
274
    -2
284
     1
 64
     0
275
    -2
285
     1
 65
     0
276
    -2
286
     1
 66
     0
277
    -2
287
     1
 67
     0
278
    -2
288
     1
 68
     0
279
    -2
289
     1
 69
     0
  7
STANDARD
140
0.25
170
     5
 62
     0
 63
     7
283
     0
274
    -2
284
     1
 64
     0
275
    -2
285
     1
 65
     0
276
    -2
286
     1
 66
     0
277
    -2
287
     1
 67
     0
278
    -2
288
     1
 68
     0
279
    -2
289
     1
 69
     0
  7
STANDARD
140
0.18
170
     5
 62
     0
 63
     7
283
     0
274
    -2
284
     1
 64
     0
275
    -2
285
     1
 65
     0
276
    -2
286
     1
 66
     0
277
    -2
287
     1
 67
     0
278
    -2
288
     1
 68
     0
279
    -2
289
     1
 69
     0
  0
VISUALSTYLE
  5
2F
102
{ACAD_XDICTIONARY
360
3B6
102
}
102
{ACAD_REACTORS
330
2A
102
}
330
2A
100
AcDbVisualStyle
  2
2dWireframe
 70
     4
 71
     0
 72
     2
 73
     0
 90
        0
 40
-0.6
 41
-30.0
 62
     5
 63
     7
 74
     1
 91
        4
 64
     7
 65
   257
 75
     1
175
     1
 42
1.0
 92
        0
 66
   257
 43
1.0
 76
     1
 77
     6
 78
     2
 67
     7
 79
     5
170
     0
171
     0
290
     0
174
     0
 93
        1
 44
0.0
173
     0
291
     0
 45
0.0
1001
ACAD
1000
AcDbSavedByObjectVersion
1070
     0
  0
VISUALSTYLE
  5
32
102
{ACAD_XDICTIONARY
360
3BC
102
}
102
{ACAD_REACTORS
330
2A
102
}
330
2A
100
AcDbVisualStyle
  2
Basic
 70
     7
 71
     1
 72
     0
 73
     1
 90
        0
 40
-0.6
 41
-30.0
 62
     5
 63
     7
 74
     0
 91
        4
 64
     7
 65
   257
 75
     1
175
     1
 42
1.0
 92
        8
 66
     7
 43
1.0
 76
     1
 77
     6
 78
     2
 67
     7
 79
     5
170
     0
171
     0
290
     0
174
     0
 93
        1
 44
0.0
173
     0
291
     1
 45
0.0
1001
ACAD
1000
AcDbSavedByObjectVersion
1070
     0
  0
VISUALSTYLE
  5
36
102
{ACAD_XDICTIONARY
360
3C4
102
}
102
{ACAD_REACTORS
330
2A
102
}
330
2A
100
AcDbVisualStyle
  2
Brighten
 70
    12
 71
     2
 72
     2
 73
     0
 90
        0
 40
-0.6
 41
-30.0
 62
     5
 63
     7
 74
     1
 91
        4
 64
     7
 65
   257
 75
     1
175
     1
 42
1.0
 92
        8
 66
     7
 43
1.0
 76
     1
 77
     6
 78
     2
 67
     7
 79
     5
170
     0
171
     0
290
     0
174
     0
 93
        1
 44
50.0
173
     0
291
     1
 45
0.0
1001
ACAD
1000
AcDbSavedByObjectVersion
1070
     0
  0
VISUALSTYLE
  5
3A
102
{ACAD_XDICTIONARY
360
3CC
102
}
102
{ACAD_REACTORS
330
2A
102
}
330
2A
100
AcDbVisualStyle
  2
ColorChange
 70
    16
 71
     2
 72
     2
 73
     3
 90
        0
 40
-0.6
 41
-30.0
 62
     5
 63
     8
 74
     1
 91
        4
 64
     7
 65
   257
 75
     1
175
     1
 42
1.0
 92
        8
 66
     8
 43
1.0
 76
     1
 77
     6
 78
     2
 67
     7
 79
     5
170
     0
171
     0
290
     0
174
     0
 93
        1
 44
0.0
173
     0
291
     1
 45
0.0
1001
ACAD
1000
AcDbSavedByObjectVersion
1070
     0
  0
VISUALSTYLE
  5
34
102
{ACAD_XDICTIONARY
360
3C0
102
}
102
{ACAD_REACTORS
330
2A
102
}
330
2A
100
AcDbVisualStyle
  2
Conceptual
 70
     9
 71
     3
 72
     2
 73
     0
 90
        0
 40
-0.6
 41
-30.0
 62
     5
 63
     7
 74
     2
 91
        2
 64
     7
 65
   257
 75
     1
175
     1
 42
179.0
 92
        8
 66
     7
 43
1.0
 76
     1
 77
     6
 78
     2
 67
     7
 79
     3
170
     0
171
     0
290
     0
174
     0
 93
        1
 44
0.0
173
     0
291
     0
 45
0.0
1001
ACAD
1000
AcDbSavedByObjectVersion
1070
     0
  0
VISUALSTYLE
  5
35
102
{ACAD_XDICTIONARY
360
3C2
102
}
102
{ACAD_REACTORS
330
2A
102
}
330
2A
100
AcDbVisualStyle
  2
Dim
 70
    11
 71
     2
 72
     2
 73
     0
 90
        0
 40
-0.6
 41
-30.0
 62
     5
 63
     7
 74
     1
 91
        4
 64
     7
 65
   257
 75
     1
175
     1
 42
1.0
 92
        8
 66
     7
 43
1.0
 76
     1
 77
     6
 78
     2
 67
     7
 79
     5
170
     0
171
     0
290
     0
174
     0
 93
        1
 44
-50.0
173
     0
291
     1
 45
0.0
1001
ACAD
1000
AcDbSavedByObjectVersion
1070
     0
  0
VISUALSTYLE
  5
3D
102
{ACAD_XDICTIONARY
360
3D2
102
}
102
{ACAD_REACTORS
330
2A
102
}
330
2A
100
AcDbVisualStyle
  2
EdgeColorOff
 70
    22
 71
     2
 72
     2
 73
     0
 90
        0
 40
-0.6
 41
-30.0
 62
     5
 63
     7
 74
     1
 91
        4
 64
     7
 65
   257
 75
     1
175
     1
 42
1.0
 92
        8
 66
     7
 43
1.0
 76
     1
 77
     6
 78
     2
 67
     7
 79
     5
170
     0
171
     0
290
     0
174
     0
 93
        1
 44
0.0
173
     0
291
     1
 45
0.0
1001
ACAD
1000
AcDbSavedByObjectVersion
1070
     0
  0
VISUALSTYLE
  5
39
102
{ACAD_XDICTIONARY
360
3CA
102
}
102
{ACAD_REACTORS
330
2A
102
}
330
2A
100
AcDbVisualStyle
  2
Facepattern
 70
    15
 71
     2
 72
     2
 73
     0
 90
        0
 40
-0.6
 41
-30.0
 62
     5
 63
     7
 74
     1
 91
        4
 64
     7
 65
   257
 75
     1
175
     1
 42
1.0
 92
        8
 66
     7
 43
1.0
 76
     1
 77
     6
 78
     2
 67
     7
 79
     5
170
     0
171
     0
290
     0
174
     0
 93
        1
 44
0.0
173
     0
291
     1
 45
0.0
1001
ACAD
1000
AcDbSavedByObjectVersion
1070
     0
  0
VISUALSTYLE
  5
2B
102
{ACAD_XDICTIONARY
360
3AE
102
}
102
{ACAD_REACTORS
330
2A
102
}
330
2A
100
AcDbVisualStyle
  2
Flat
 70
     0
 71
     2
 72
     1
 73
     1
 90
        2
 40
-0.6
 41
30.0
 62
     5
 63
     7
 74
     0
 91
        0
 64
     7
 65
   257
 75
     1
175
     1
 42
1.0
 92
        8
 66
     7
 43
1.0
 76
     1
 77
     6
 78
     2
 67
     7
 79
     5
170
     0
171
     0
290
     0
174
     0
 93
       13
 44
0.0
173
     0
291
     1
 45
0.0
1001
ACAD
1000
AcDbSavedByObjectVersion
1070
     0
  0
VISUALSTYLE
  5
2C
102
{ACAD_XDICTIONARY
360
3B0
102
}
102
{ACAD_REACTORS
330
2A
102
}
330
2A
100
AcDbVisualStyle
  2
FlatWithEdges
 70
     1
 71
     2
 72
     1
 73
     1
 90
        2
 40
-0.6
 41
30.0
 62
     5
 63
     7
 74
     1
 91
        0
 64
     7
 65
   257
 75
     1
175
     1
 42
1.0
 92
        0
 66
   257
 43
1.0
 76
     1
 77
     6
 78
     2
 67
     7
 79
     5
170
     0
171
     0
290
     0
174
     0
 93
       13
 44
0.0
173
     0
291
     1
 45
0.0
1001
ACAD
1000
AcDbSavedByObjectVersion
1070
     0
  0
VISUALSTYLE
  5
2D
102
{ACAD_XDICTIONARY
360
3B2
102
}
102
{ACAD_REACTORS
330
2A
102
}
330
2A
100
AcDbVisualStyle
  2
Gouraud
 70
     2
 71
     2
 72
     2
 73
     1
 90
        2
 40
-0.6
 41
30.0
 62
     5
 63
     7
 74
     0
 91
        0
 64
     7
 65
   257
 75
     1
175
     1
 42
1.0
 92
        0
 66
     7
 43
1.0
 76
     1
 77
     6
 78
     2
 67
     7
 79
     5
170
     0
171
     0
290
     0
174
     0
 93
       13
 44
0.0
173
     0
291
     1
 45
0.0
1001
ACAD
1000
AcDbSavedByObjectVersion
1070
     0
  0
VISUALSTYLE
  5
2E
102
{ACAD_XDICTIONARY
360
3B4
102
}
102
{ACAD_REACTORS
330
2A
102
}
330
2A
100
AcDbVisualStyle
  2
GouraudWithEdges
 70
     3
 71
     2
 72
     2
 73
     1
 90
        2
 40
-0.6
 41
30.0
 62
     5
 63
     7
 74
     1
 91
        0
 64
     7
 65
   257
 75
     1
175
     1
 42
1.0
 92
        0
 66
   257
 43
1.0
 76
     1
 77
     6
 78
     2
 67
     7
 79
     5
170
     0
171
     0
290
     0
174
     0
 93
       13
 44
0.0
173
     0
291
     1
 45
0.0
1001
ACAD
1000
AcDbSavedByObjectVersion
1070
     0
  0
VISUALSTYLE
  5
31
102
{ACAD_XDICTIONARY
360
3BA
102
}
102
{ACAD_REACTORS
330
2A
102
}
330
2A
100
AcDbVisualStyle
  2
Hidden
 70
     6
 71
     1
 72
     2
 73
     2
 90
        0
 40
-0.6
 41
-30.0
 62
     5
 63
     7
 74
     2
 91
        2
 64
     7
 65
   257
 75
     2
175
     1
 42
40.0
 92
        0
 66
   257
 43
1.0
 76
     1
 77
     6
 78
     2
 67
     7
 79
     3
170
     0
171
     0
290
     0
174
     0
 93
        1
 44
0.0
173
     0
291
     0
 45
0.0
1001
ACAD
1000
AcDbSavedByObjectVersion
1070
     0
  0
VISUALSTYLE
  5
3B
102
{ACAD_XDICTIONARY
360
3CE
102
}
102
{ACAD_REACTORS
330
2A
102
}
330
2A
100
AcDbVisualStyle
  2
JitterOff
 70
    20
 71
     2
 72
     2
 73
     0
 90
        0
 40
-0.6
 41
-30.0
 62
     5
 63
     7
 74
     1
 91
        4
 64
     7
 65
   257
 75
     1
175
     1
 42
1.0
 92
       10
 66
     7
 43
1.0
 76
     1
 77
     6
 78
     2
 67
     7
 79
     5
170
     0
171
     0
290
     0
174
     0
 93
        1
 44
0.0
173
     0
291
     1
 45
0.0
1001
ACAD
1000
AcDbSavedByObjectVersion
1070
     0
  0
VISUALSTYLE
  5
38
102
{ACAD_XDICTIONARY
360
3C8
102
}
102
{ACAD_REACTORS
330
2A
102
}
330
2A
100
AcDbVisualStyle
  2
Linepattern
 70
    14
 71
     2
 72
     2
 73
     0
 90
        0
 40
-0.6
 41
-30.0
 62
     5
 63
     7
 74
     1
 91
        4
 64
     7
 65
   257
 75
     7
175
     7
 42
1.0
 92
        8
 66
     7
 43
1.0
 76
     1
 77
     6
 78
     2
 67
     7
 79
     5
170
     0
171
     0
290
     0
174
     0
 93
        1
 44
0.0
173
     0
291
     1
 45
0.0
1001
ACAD
1000
AcDbSavedByObjectVersion
1070
     0
  0
VISUALSTYLE
  5
3C
102
{ACAD_XDICTIONARY
360
3D0
102
}
102
{ACAD_REACTORS
330
2A
102
}
330
2A
100
AcDbVisualStyle
  2
OverhangOff
 70
    21
 71
     2
 72
     2
 73
     0
 90
        0
 40
-0.6
 41
-30.0
 62
     5
 63
     7
 74
     1
 91
        4
 64
     7
 65
   257
 75
     1
175
     1
 42
1.0
 92
        9
 66
     7
 43
1.0
 76
     1
 77
     6
 78
     2
 67
     7
 79
     5
170
     0
171
     0
290
     0
174
     0
 93
        1
 44
0.0
173
     0
291
     1
 45
0.0
1001
ACAD
1000
AcDbSavedByObjectVersion
1070
     0
  0
VISUALSTYLE
  5
33
102
{ACAD_XDICTIONARY
360
3BE
102
}
102
{ACAD_REACTORS
330
2A
102
}
330
2A
100
AcDbVisualStyle
  2
Realistic
 70
     8
 71
     2
 72
     3
 73
     0
 90
        2
 40
-0.6
 41
30.0
 62
     5
 63
     7
 74
     0
 91
        0
 64
     7
 65
   257
 75
     1
175
     1
 42
1.0
 92
        8
 66
   257
 43
1.0
 76
     1
 77
     6
 78
     2
 67
     7
 79
     3
170
     0
171
     0
290
     0
174
     0
 93
       13
 44
0.0
173
     0
291
     0
 45
0.0
1001
ACAD
1000
AcDbSavedByObjectVersion
1070
     0
  0
VISUALSTYLE
  5
42
102
{ACAD_XDICTIONARY
360
3DC
102
}
102
{ACAD_REACTORS
330
2A
102
}
330
2A
100
AcDbVisualStyle
  2
Shaded
 70
    27
 71
     2
 72
     2
 73
     1
 90
        2
 40
-0.6
 41
30.0
 62
     5
 63
     7
 74
     0
 91
        4
 64
     7
 65
   257
 75
     1
175
     1
 42
1.0
 92
        8
 66
   257
 43
1.0
 76
     1
 77
     6
 78
     2
 67
     8
 79
     3
170
     0
171
     0
290
     0
174
     0
 93
        5
 44
0.0
173
     0
291
     0
 45
0.0
1001
ACAD
1000
AcDbSavedByObjectVersion
1070
     0
  0
VISUALSTYLE
  5
1A1
102
{ACAD_XDICTIONARY
360
3E0
102
}
102
{ACAD_REACTORS
330
2A
102
}
330
2A
100
AcDbVisualStyle
  2
Shaded with edges
 70
    26
 71
     2
 72
     2
 73
     1
 90
        2
 40
-0.6
 41
30.0
 62
     5
 63
     7
 74
     1
 91
       10
 64
     7
 65
   257
 75
     2
175
     1
 42
1.0
 92
        8
 66
   257
 43
1.0
 76
     1
 77
     6
 78
     2
 67
     7
 79
     3
170
     0
171
     0
290
     0
174
     0
 93
        5
 44
0.0
173
     0
291
     0
 45
0.0
1001
ACAD
1000
AcDbSavedByObjectVersion
1070
     0
  0
VISUALSTYLE
  5
41
102
{ACAD_XDICTIONARY
360
3DA
102
}
102
{ACAD_REACTORS
330
2A
102
}
330
2A
100
AcDbVisualStyle
  2
Shaded with edges
 70
    26
 71
     2
 72
     2
 73
     1
 90
        2
 40
-0.6
 41
30.0
 62
     5
 63
     7
 74
     1
 91
       10
 64
     7
 65
   257
 75
     2
175
     1
 42
1.0
 92
        8
 66
   257
 43
1.0
 76
     1
 77
     6
 78
     2
 67
     7
 79
     3
170
     0
171
     0
290
     0
174
     0
 93
        5
 44
0.0
173
     0
291
     0
 45
0.0
1001
ACAD
1000
AcDbSavedByObjectVersion
1070
     0
  0
VISUALSTYLE
  5
1A0
102
{ACAD_XDICTIONARY
360
3DE
102
}
102
{ACAD_REACTORS
330
2A
102
}
330
2A
100
AcDbVisualStyle
  2
Shades of Gray
 70
    23
 71
     2
 72
     2
 73
     3
 90
        0
 40
-0.6
 41
-30.0
 62
     5
 63
     7
 74
     2
 91
        2
 64
     7
 65
     7
 75
     1
175
     1
 42
40.0
 92
        8
 66
     7
 43
1.0
 76
     1
 77
     6
 78
     2
 67
     7
 79
     3
170
     0
171
     0
290
     0
174
     0
 93
        1
 44
0.0
173
     0
291
     0
 45
0.0
1001
ACAD
1000
AcDbSavedByObjectVersion
1070
     0
  0
VISUALSTYLE
  5
3E
102
{ACAD_XDICTIONARY
360
3D4
102
}
102
{ACAD_REACTORS
330
2A
102
}
330
2A
100
AcDbVisualStyle
  2
Shades of Gray
 70
    23
 71
     2
 72
     2
 73
     3
 90
        0
 40
-0.6
 41
-30.0
 62
     5
 63
     7
 74
     2
 91
        2
 64
     7
 65
     7
 75
     1
175
     1
 42
40.0
 92
        8
 66
     7
 43
1.0
 76
     1
 77
     6
 78
     2
 67
     7
 79
     3
170
     0
171
     0
290
     0
174
     0
 93
        1
 44
0.0
173
     0
291
     0
 45
0.0
1001
ACAD
1000
AcDbSavedByObjectVersion
1070
     0
  0
VISUALSTYLE
  5
3F
102
{ACAD_XDICTIONARY
360
3D6
102
}
102
{ACAD_REACTORS
330
2A
102
}
330
2A
100
AcDbVisualStyle
  2
Sketchy
 70
    24
 71
     1
 72
     2
 73
     2
 90
        0
 40
-0.6
 41
-30.0
 62
     5
 63
     7
 74
     2
 91
        2
 64
     7
 65
     7
 75
     1
175
     1
 42
40.0
 92
       11
 66
     7
 43
1.0
 76
     1
 77
     6
 78
     2
 67
     7
 79
     6
170
     0
171
     0
290
     0
174
     0
 93
        1
 44
0.0
173
     0
291
     0
 45
0.0
1001
ACAD
1000
AcDbSavedByObjectVersion
1070
     0
  0
VISUALSTYLE
  5
37
102
{ACAD_XDICTIONARY
360
3C6
102
}
102
{ACAD_REACTORS
330
2A
102
}
330
2A
100
AcDbVisualStyle
  2
Thicken
 70
    13
 71
     2
 72
     2
 73
     0
 90
        0
 40
-0.6
 41
-30.0
 62
     5
 63
     7
 74
     1
 91
        4
 64
     7
 65
   257
 75
     1
175
     1
 42
1.0
 92
       12
 66
     7
 43
1.0
 76
     1
 77
     6
 78
     2
 67
     7
 79
     5
170
     0
171
     0
290
     0
174
     0
 93
        1
 44
0.0
173
     0
291
     1
 45
0.0
1001
ACAD
1000
AcDbSavedByObjectVersion
1070
     0
  0
VISUALSTYLE
  5
30
102
{ACAD_XDICTIONARY
360
3B8
102
}
102
{ACAD_REACTORS
330
2A
102
}
330
2A
100
AcDbVisualStyle
  2
Wireframe
 70
     5
 71
     0
 72
     2
 73
     0
 90
        0
 40
-0.6
 41
-30.0
 62
     5
 63
     7
 74
     1
 91
        4
 64
     7
 65
   257
 75
     1
175
     1
 42
1.0
 92
        0
 66
   257
 43
1.0
 76
     1
 77
     6
 78
     2
 67
     7
 79
     3
170
     0
171
     0
290
     0
174
     0
 93
        1
 44
0.0
173
     0
291
     0
 45
0.0
1001
ACAD
1000
AcDbSavedByObjectVersion
1070
     0
  0
VISUALSTYLE
  5
40
102
{ACAD_XDICTIONARY
360
3D8
102
}
102
{ACAD_REACTORS
330
2A
102
}
330
2A
100
AcDbVisualStyle
  2
X-Ray
 70
    25
 71
     2
 72
     2
 73
     1
 90
        1
 40
0.5
 41
-30.0
 62
     5
 63
     7
 74
     1
 91
        0
 64
     7
 65
   257
 75
     1
175
     1
 42
1.0
 92
        8
 66
     7
 43
1.0
 76
     1
 77
     6
 78
     2
 67
     7
 79
     3
170
     0
171
     0
290
     0
174
     0
 93
       13
 44
0.0
173
     0
291
     0
 45
0.0
1001
ACAD
1000
AcDbSavedByObjectVersion
1070
     0
  0
DICTIONARYVAR
  5
194
102
{ACAD_REACTORS
330
18A
102
}
330
18A
100
DictionaryVariables
280
     0
  1
1:1
  0
DICTIONARYVAR
  5
1B3
102
{ACAD_REACTORS
330
18A
102
}
330
18A
100
DictionaryVariables
280
     0
  1
STANDARD
  0
DICTIONARYVAR
  5
1B2
102
{ACAD_REACTORS
330
18A
102
}
330
18A
100
DictionaryVariables
280
     0
  1
STANDARD
  0
DICTIONARYVAR
  5
191
102
{ACAD_REACTORS
330
18A
102
}
330
18A
100
DictionaryVariables
280
     0
  1
2
  0
DICTIONARYVAR
  5
192
102
{ACAD_REACTORS
330
18A
102
}
330
18A
100
DictionaryVariables
280
     0
  1
1
  0
DICTIONARYVAR
  5
1B5
102
{ACAD_REACTORS
330
18A
102
}
330
18A
100
DictionaryVariables
280
     0
  1
0
  0
DICTIONARYVAR
  5
195
102
{ACAD_REACTORS
330
18A
102
}
330
18A
100
DictionaryVariables
280
     0
  1
1
  0
DICTIONARYVAR
  5
1B7
102
{ACAD_REACTORS
330
18A
102
}
330
18A
100
DictionaryVariables
280
     0
  1
80.000000
  0
DICTIONARYVAR
  5
1B6
102
{ACAD_REACTORS
330
18A
102
}
330
18A
100
DictionaryVariables
280
     0
  1
5.000000
  0
DICTIONARYVAR
  5
1B4
102
{ACAD_REACTORS
330
18A
102
}
330
18A
100
DictionaryVariables
280
     0
  1
127
  0
DICTIONARYVAR
  5
1B8
102
{ACAD_REACTORS
330
18A
102
}
330
18A
100
DictionaryVariables
280
     0
  1
2
  0
DICTIONARY
  5
3E6
330
1A7
100
AcDbDictionary
280
     1
281
     1
  3
ACAD_XREC_ROUNDTRIP
360
3E7
  0
DICTIONARY
  5
3E4
330
1A6
100
AcDbDictionary
280
     1
281
     1
  3
ACAD_XREC_ROUNDTRIP
360
3E5
  0
DICTIONARY
  5
198
330
45
100
AcDbDictionary
281
     1
  3
ACAD_XREC_ROUNDTRIP
350
199
  0
DICTIONARY
  5
196
330
44
100
AcDbDictionary
281
     1
  3
ACAD_XREC_ROUNDTRIP
350
197
  0
DICTIONARY
  5
19A
330
46
100
AcDbDictionary
281
     1
  3
ACAD_XREC_ROUNDTRIP
350
19B
  0
DICTIONARY
  5
3AA
330
1A4
100
AcDbDictionary
280
     1
281
     1
  3
ACAD_ROUNDTRIP_2008_TABLESTYLE_CELLSTYLEMAP
360
3AB
  3
ACAD_XREC_ROUNDTRIP
360
3E2
  0
DICTIONARY
  5
3B6
330
2F
100
AcDbDictionary
280
     1
281
     1
  3
ACAD_XREC_ROUNDTRIP
360
3B7
  0
DICTIONARY
  5
3BC
330
32
100
AcDbDictionary
280
     1
281
     1
  3
ACAD_XREC_ROUNDTRIP
360
3BD
  0
DICTIONARY
  5
3C4
330
36
100
AcDbDictionary
280
     1
281
     1
  3
ACAD_XREC_ROUNDTRIP
360
3C5
  0
DICTIONARY
  5
3CC
330
3A
100
AcDbDictionary
280
     1
281
     1
  3
ACAD_XREC_ROUNDTRIP
360
3CD
  0
DICTIONARY
  5
3C0
330
34
100
AcDbDictionary
280
     1
281
     1
  3
ACAD_XREC_ROUNDTRIP
360
3C1
  0
DICTIONARY
  5
3C2
330
35
100
AcDbDictionary
280
     1
281
     1
  3
ACAD_XREC_ROUNDTRIP
360
3C3
  0
DICTIONARY
  5
3D2
330
3D
100
AcDbDictionary
280
     1
281
     1
  3
ACAD_XREC_ROUNDTRIP
360
3D3
  0
DICTIONARY
  5
3CA
330
39
100
AcDbDictionary
280
     1
281
     1
  3
ACAD_XREC_ROUNDTRIP
360
3CB
  0
DICTIONARY
  5
3AE
330
2B
100
AcDbDictionary
280
     1
281
     1
  3
ACAD_XREC_ROUNDTRIP
360
3AF
  0
DICTIONARY
  5
3B0
330
2C
100
AcDbDictionary
280
     1
281
     1
  3
ACAD_XREC_ROUNDTRIP
360
3B1
  0
DICTIONARY
  5
3B2
330
2D
100
AcDbDictionary
280
     1
281
     1
  3
ACAD_XREC_ROUNDTRIP
360
3B3
  0
DICTIONARY
  5
3B4
330
2E
100
AcDbDictionary
280
     1
281
     1
  3
ACAD_XREC_ROUNDTRIP
360
3B5
  0
DICTIONARY
  5
3BA
330
31
100
AcDbDictionary
280
     1
281
     1
  3
ACAD_XREC_ROUNDTRIP
360
3BB
  0
DICTIONARY
  5
3CE
330
3B
100
AcDbDictionary
280
     1
281
     1
  3
ACAD_XREC_ROUNDTRIP
360
3CF
  0
DICTIONARY
  5
3C8
330
38
100
AcDbDictionary
280
     1
281
     1
  3
ACAD_XREC_ROUNDTRIP
360
3C9
  0
DICTIONARY
  5
3D0
330
3C
100
AcDbDictionary
280
     1
281
     1
  3
ACAD_XREC_ROUNDTRIP
360
3D1
  0
DICTIONARY
  5
3BE
330
33
100
AcDbDictionary
280
     1
281
     1
  3
ACAD_XREC_ROUNDTRIP
360
3BF
  0
DICTIONARY
  5
3DC
330
42
100
AcDbDictionary
280
     1
281
     1
  3
ACAD_XREC_ROUNDTRIP
360
3DD
  0
DICTIONARY
  5
3E0
330
1A1
100
AcDbDictionary
280
     1
281
     1
  3
ACAD_XREC_ROUNDTRIP
360
3E1
  0
DICTIONARY
  5
3DA
330
41
100
AcDbDictionary
280
     1
281
     1
  3
ACAD_XREC_ROUNDTRIP
360
3DB
  0
DICTIONARY
  5
3DE
330
1A0
100
AcDbDictionary
280
     1
281
     1
  3
ACAD_XREC_ROUNDTRIP
360
3DF
  0
DICTIONARY
  5
3D4
330
3E
100
AcDbDictionary
280
     1
281
     1
  3
ACAD_XREC_ROUNDTRIP
360
3D5
  0
DICTIONARY
  5
3D6
330
3F
100
AcDbDictionary
280
     1
281
     1
  3
ACAD_XREC_ROUNDTRIP
360
3D7
  0
DICTIONARY
  5
3C6
330
37
100
AcDbDictionary
280
     1
281
     1
  3
ACAD_XREC_ROUNDTRIP
360
3C7
  0
DICTIONARY
  5
3B8
330
30
100
AcDbDictionary
280
     1
281
     1
  3
ACAD_XREC_ROUNDTRIP
360
3B9
  0
DICTIONARY
  5
3D8
330
40
100
AcDbDictionary
280
     1
281
     1
  3
ACAD_XREC_ROUNDTRIP
360
3D9
  0
XRECORD
  5
3E7
102
{ACAD_REACTORS
330
3E6
102
}
330
3E6
100
AcDbXrecord
280
     1
102
SHADEPLOT
 70
     0
102
SHADEPLOTRESLEVEL
 70
     2
102
SHADEPLOTCUSTOMDPI
 70
   300
  0
XRECORD
  5
3E5
102
{ACAD_REACTORS
330
3E4
102
}
330
3E4
100
AcDbXrecord
280
     1
102
SHADEPLOT
 70
     0
102
SHADEPLOTRESLEVEL
 70
     2
102
SHADEPLOTCUSTOMDPI
 70
   300
  0
XRECORD
  5
199
102
{ACAD_REACTORS
330
198
102
}
330
198
100
AcDbXrecord
280
     1
102
MATERIAL
148
0.0
149
0.0
149
0.0
 93
        0
 94
      127
282
     0
 72
     1
 77
     1
171
     1
175
     1
179
     1
273
     0
  0
XRECORD
  5
197
102
{ACAD_REACTORS
330
196
102
}
330
196
100
AcDbXrecord
280
     1
102
MATERIAL
148
0.0
149
0.0
149
0.0
 93
        0
 94
      127
282
     0
 72
     1
 77
     1
171
     1
175
     1
179
     1
273
     0
  0
XRECORD
  5
19B
102
{ACAD_REACTORS
330
19A
102
}
330
19A
100
AcDbXrecord
280
     1
102
MATERIAL
148
0.0
149
0.0
149
0.0
 93
        0
 94
      127
282
     0
 72
     1
 77
     1
171
     1
175
     1
179
     1
273
     0
  0
CELLSTYLEMAP
  5
3AB
102
{ACAD_REACTORS
330
3AA
102
}
330
3AA
100
AcDbCellStyleMap
 90
        3
300
CELLSTYLE
  1
TABLEFORMAT_BEGIN
 90
        5
170
     1
 91
        0
 92
    32768
 62
   257
 93
        1
300
CONTENTFORMAT
  1
CONTENTFORMAT_BEGIN
 90
        0
 91
        0
 92
      512
 93
        0
300

 40
0.0
140
1.0
 94
        5
 62
     0
340
11
144
0.25
309
CONTENTFORMAT_END
171
     0
 94
        0
309
TABLEFORMAT_END
  1
CELLSTYLE_BEGIN
 90
        1
 91
        1
300
_TITLE
309
CELLSTYLE_END
300
CELLSTYLE
  1
TABLEFORMAT_BEGIN
 90
        5
170
     1
 91
        0
 92
        0
 62
   257
 93
        1
300
CONTENTFORMAT
  1
CONTENTFORMAT_BEGIN
 90
        0
 91
        0
 92
      512
 93
        0
300

 40
0.0
140
1.0
 94
        5
 62
     0
340
11
144
0.18
309
CONTENTFORMAT_END
171
     0
 94
        0
309
TABLEFORMAT_END
  1
CELLSTYLE_BEGIN
 90
        2
 91
        1
300
_HEADER
309
CELLSTYLE_END
300
CELLSTYLE
  1
TABLEFORMAT_BEGIN
 90
        5
170
     1
 91
        0
 92
        0
 62
   257
 93
        1
300
CONTENTFORMAT
  1
CONTENTFORMAT_BEGIN
 90
        0
 91
        0
 92
      512
 93
        0
300

 40
0.0
140
1.0
 94
        2
 62
     0
340
11
144
0.18
309
CONTENTFORMAT_END
171
     0
 94
        0
309
TABLEFORMAT_END
  1
CELLSTYLE_BEGIN
 90
        3
 91
        2
300
_DATA
309
CELLSTYLE_END
  0
XRECORD
  5
3E2
102
{ACAD_REACTORS
330
3AA
102
}
330
3AA
100
AcDbXrecord
280
     1
102
ACAD_ROUNDTRIP_PRE2007_TABLESTYLE
 90
      512
 91
        0
  1

 92
      512
 93
        0
  2

 94
      512
 95
        0
  3

  0
XRECORD
  5
3B7
102
{ACAD_REACTORS
330
3B6
102
}
330
3B6
100
AcDbXrecord
280
     1
102
RTVSPropertyOp0
 70
     1
102
RTVSPropertyOp1
 70
     1
102
RTVSPropertyOp2
 70
     1
102
RTVSPropertyOp3
 70
     1
102
RTVSPropertyOp4
 70
     1
102
RTVSPropertyOp5
 70
     1
102
RTVSPropertyOp6
 70
     1
102
RTVSPropertyOp7
 70
     1
102
RTVSPropertyOp8
 70
     1
102
RTVSPropertyOp9
 70
     1
102
RTVSPropertyOp10
 70
     1
102
RTVSPropertyOp11
 70
     1
102
RTVSPropertyOp12
 70
     1
102
RTVSPropertyOp13
 70
     1
102
RTVSPropertyOp14
 70
     1
102
RTVSPropertyOp15
 70
     1
102
RTVSPropertyOp16
 70
     1
102
RTVSPropertyOp17
 70
     1
102
RTVSPropertyOp18
 70
     1
102
RTVSPropertyOp19
 70
     1
102
RTVSPropertyOp20
 70
     1
102
RTVSPropertyOp21
 70
     1
102
RTVSPropertyOp22
 70
     1
102
RTVSPropertyOp23
 70
     1
102
RTVSPropertyOp24
 70
     1
102
RTVSPropertyOp25
 70
     1
102
RTVSPropertyOp26
 70
     1
102
RTVSPropertyOp27
 70
     1
102
RTVSPropertyOp28
 70
     1
102
RTVSPropertyOp29
 70
     1
102
RTVSPropertyOp30
 70
     1
102
RTVSPropertyOp31
 70
     1
102
RTVSPropertyOp32
 70
     1
  0
XRECORD
  5
3BD
102
{ACAD_REACTORS
330
3BC
102
}
330
3BC
100
AcDbXrecord
280
     1
102
RTVSPropertyOp0
 70
     1
102
RTVSPropertyOp1
 70
     1
102
RTVSPropertyOp2
 70
     1
102
RTVSPropertyOp3
 70
     1
102
RTVSPropertyOp4
 70
     1
102
RTVSPropertyOp5
 70
     1
102
RTVSPropertyOp6
 70
     1
102
RTVSPropertyOp7
 70
     1
102
RTVSPropertyOp8
 70
     1
102
RTVSPropertyOp9
 70
     1
102
RTVSPropertyOp10
 70
     1
102
RTVSPropertyOp11
 70
     1
102
RTVSPropertyOp12
 70
     1
102
RTVSPropertyOp13
 70
     1
102
RTVSPropertyOp14
 70
     1
102
RTVSPropertyOp15
 70
     1
102
RTVSPropertyOp16
 70
     1
102
RTVSPropertyOp17
 70
     1
102
RTVSPropertyOp18
 70
     1
102
RTVSPropertyOp19
 70
     1
102
RTVSPropertyOp20
 70
     1
102
RTVSPropertyOp21
 70
     1
102
RTVSPropertyOp22
 70
     1
102
RTVSPropertyOp23
 70
     1
102
RTVSPropertyOp24
 70
     1
102
RTVSPropertyOp25
 70
     1
102
RTVSPropertyOp26
 70
     1
102
RTVSPropertyOp27
 70
     1
102
RTVSPropertyOp28
 70
     1
102
RTVSPropertyOp29
 70
     1
102
RTVSPropertyOp30
 70
     1
102
RTVSPropertyOp31
 70
     1
102
RTVSPropertyOp32
 70
     1
  0
XRECORD
  5
3C5
102
{ACAD_REACTORS
330
3C4
102
}
330
3C4
100
AcDbXrecord
280
     1
102
RTVSPropertyOp0
 70
     1
102
RTVSPropertyOp1
 70
     1
102
RTVSPropertyOp2
 70
     1
102
RTVSPropertyOp3
 70
     1
102
RTVSPropertyOp4
 70
     1
102
RTVSPropertyOp5
 70
     1
102
RTVSPropertyOp6
 70
     1
102
RTVSPropertyOp7
 70
     1
102
RTVSPropertyOp8
 70
     1
102
RTVSPropertyOp9
 70
     1
102
RTVSPropertyOp10
 70
     1
102
RTVSPropertyOp11
 70
     1
102
RTVSPropertyOp12
 70
     1
102
RTVSPropertyOp13
 70
     1
102
RTVSPropertyOp14
 70
     1
102
RTVSPropertyOp15
 70
     1
102
RTVSPropertyOp16
 70
     1
102
RTVSPropertyOp17
 70
     1
102
RTVSPropertyOp18
 70
     1
102
RTVSPropertyOp19
 70
     1
102
RTVSPropertyOp20
 70
     1
102
RTVSPropertyOp21
 70
     1
102
RTVSPropertyOp22
 70
     1
102
RTVSPropertyOp23
 70
     1
102
RTVSPropertyOp24
 70
     1
102
RTVSPropertyOp25
 70
     1
102
RTVSPropertyOp26
 70
     1
102
RTVSPropertyOp27
 70
     1
102
RTVSPropertyOp28
 70
     1
102
RTVSPropertyOp29
 70
     1
102
RTVSPropertyOp30
 70
     1
102
RTVSPropertyOp31
 70
     1
102
RTVSPropertyOp32
 70
     1
  0
XRECORD
  5
3CD
102
{ACAD_REACTORS
330
3CC
102
}
330
3CC
100
AcDbXrecord
280
     1
102
RTVSPropertyOp0
 70
     1
102
RTVSPropertyOp1
 70
     1
102
RTVSPropertyOp2
 70
     1
102
RTVSPropertyOp3
 70
     1
102
RTVSPropertyOp4
 70
     1
102
RTVSPropertyOp5
 70
     1
102
RTVSPropertyOp6
 70
     1
102
RTVSPropertyOp7
 70
     1
102
RTVSPropertyOp8
 70
     1
102
RTVSPropertyOp9
 70
     1
102
RTVSPropertyOp10
 70
     1
102
RTVSPropertyOp11
 70
     1
102
RTVSPropertyOp12
 70
     1
102
RTVSPropertyOp13
 70
     1
102
RTVSPropertyOp14
 70
     1
102
RTVSPropertyOp15
 70
     1
102
RTVSPropertyOp16
 70
     1
102
RTVSPropertyOp17
 70
     1
102
RTVSPropertyOp18
 70
     1
102
RTVSPropertyOp19
 70
     1
102
RTVSPropertyOp20
 70
     1
102
RTVSPropertyOp21
 70
     1
102
RTVSPropertyOp22
 70
     1
102
RTVSPropertyOp23
 70
     1
102
RTVSPropertyOp24
 70
     1
102
RTVSPropertyOp25
 70
     1
102
RTVSPropertyOp26
 70
     1
102
RTVSPropertyOp27
 70
     1
102
RTVSPropertyOp28
 70
     1
102
RTVSPropertyOp29
 70
     1
102
RTVSPropertyOp30
 70
     1
102
RTVSPropertyOp31
 70
     1
102
RTVSPropertyOp32
 70
     1
  0
XRECORD
  5
3C1
102
{ACAD_REACTORS
330
3C0
102
}
330
3C0
100
AcDbXrecord
280
     1
102
RTVSPropertyOp0
 70
     1
102
RTVSPropertyOp1
 70
     1
102
RTVSPropertyOp2
 70
     1
102
RTVSPropertyOp3
 70
     1
102
RTVSPropertyOp4
 70
     1
102
RTVSPropertyOp5
 70
     1
102
RTVSPropertyOp6
 70
     1
102
RTVSPropertyOp7
 70
     1
102
RTVSPropertyOp8
 70
     1
102
RTVSPropertyOp9
 70
     1
102
RTVSPropertyOp10
 70
     1
102
RTVSPropertyOp11
 70
     1
102
RTVSPropertyOp12
 70
     1
102
RTVSPropertyOp13
 70
     1
102
RTVSPropertyOp14
 70
     1
102
RTVSPropertyOp15
 70
     1
102
RTVSPropertyOp16
 70
     1
102
RTVSPropertyOp17
 70
     1
102
RTVSPropertyOp18
 70
     1
102
RTVSPropertyOp19
 70
     1
102
RTVSPropertyOp20
 70
     1
102
RTVSPropertyOp21
 70
     1
102
RTVSPropertyOp22
 70
     1
102
RTVSPropertyOp23
 70
     1
102
RTVSPropertyOp24
 70
     1
102
RTVSPropertyOp25
 70
     1
102
RTVSPropertyOp26
 70
     1
102
RTVSPropertyOp27
 70
     1
102
RTVSPropertyOp28
 70
     1
102
RTVSPropertyOp29
 70
     1
102
RTVSPropertyOp30
 70
     1
102
RTVSPropertyOp31
 70
     1
102
RTVSPropertyOp32
 70
     1
  0
XRECORD
  5
3C3
102
{ACAD_REACTORS
330
3C2
102
}
330
3C2
100
AcDbXrecord
280
     1
102
RTVSPropertyOp0
 70
     1
102
RTVSPropertyOp1
 70
     1
102
RTVSPropertyOp2
 70
     1
102
RTVSPropertyOp3
 70
     1
102
RTVSPropertyOp4
 70
     1
102
RTVSPropertyOp5
 70
     1
102
RTVSPropertyOp6
 70
     1
102
RTVSPropertyOp7
 70
     1
102
RTVSPropertyOp8
 70
     1
102
RTVSPropertyOp9
 70
     1
102
RTVSPropertyOp10
 70
     1
102
RTVSPropertyOp11
 70
     1
102
RTVSPropertyOp12
 70
     1
102
RTVSPropertyOp13
 70
     1
102
RTVSPropertyOp14
 70
     1
102
RTVSPropertyOp15
 70
     1
102
RTVSPropertyOp16
 70
     1
102
RTVSPropertyOp17
 70
     1
102
RTVSPropertyOp18
 70
     1
102
RTVSPropertyOp19
 70
     1
102
RTVSPropertyOp20
 70
     1
102
RTVSPropertyOp21
 70
     1
102
RTVSPropertyOp22
 70
     1
102
RTVSPropertyOp23
 70
     1
102
RTVSPropertyOp24
 70
     1
102
RTVSPropertyOp25
 70
     1
102
RTVSPropertyOp26
 70
     1
102
RTVSPropertyOp27
 70
     1
102
RTVSPropertyOp28
 70
     1
102
RTVSPropertyOp29
 70
     1
102
RTVSPropertyOp30
 70
     1
102
RTVSPropertyOp31
 70
     1
102
RTVSPropertyOp32
 70
     1
  0
XRECORD
  5
3D3
102
{ACAD_REACTORS
330
3D2
102
}
330
3D2
100
AcDbXrecord
280
     1
102
RTVSPropertyOp0
 70
     1
102
RTVSPropertyOp1
 70
     1
102
RTVSPropertyOp2
 70
     1
102
RTVSPropertyOp3
 70
     1
102
RTVSPropertyOp4
 70
     1
102
RTVSPropertyOp5
 70
     1
102
RTVSPropertyOp6
 70
     1
102
RTVSPropertyOp7
 70
     1
102
RTVSPropertyOp8
 70
     1
102
RTVSPropertyOp9
 70
     1
102
RTVSPropertyOp10
 70
     1
102
RTVSPropertyOp11
 70
     1
102
RTVSPropertyOp12
 70
     1
102
RTVSPropertyOp13
 70
     1
102
RTVSPropertyOp14
 70
     1
102
RTVSPropertyOp15
 70
     1
102
RTVSPropertyOp16
 70
     1
102
RTVSPropertyOp17
 70
     1
102
RTVSPropertyOp18
 70
     1
102
RTVSPropertyOp19
 70
     1
102
RTVSPropertyOp20
 70
     1
102
RTVSPropertyOp21
 70
     1
102
RTVSPropertyOp22
 70
     1
102
RTVSPropertyOp23
 70
     1
102
RTVSPropertyOp24
 70
     1
102
RTVSPropertyOp25
 70
     1
102
RTVSPropertyOp26
 70
     1
102
RTVSPropertyOp27
 70
     1
102
RTVSPropertyOp28
 70
     1
102
RTVSPropertyOp29
 70
     1
102
RTVSPropertyOp30
 70
     1
102
RTVSPropertyOp31
 70
     1
102
RTVSPropertyOp32
 70
     1
  0
XRECORD
  5
3CB
102
{ACAD_REACTORS
330
3CA
102
}
330
3CA
100
AcDbXrecord
280
     1
102
RTVSPropertyOp0
 70
     1
102
RTVSPropertyOp1
 70
     1
102
RTVSPropertyOp2
 70
     1
102
RTVSPropertyOp3
 70
     1
102
RTVSPropertyOp4
 70
     1
102
RTVSPropertyOp5
 70
     1
102
RTVSPropertyOp6
 70
     1
102
RTVSPropertyOp7
 70
     1
102
RTVSPropertyOp8
 70
     1
102
RTVSPropertyOp9
 70
     1
102
RTVSPropertyOp10
 70
     1
102
RTVSPropertyOp11
 70
     1
102
RTVSPropertyOp12
 70
     1
102
RTVSPropertyOp13
 70
     1
102
RTVSPropertyOp14
 70
     1
102
RTVSPropertyOp15
 70
     1
102
RTVSPropertyOp16
 70
     1
102
RTVSPropertyOp17
 70
     1
102
RTVSPropertyOp18
 70
     1
102
RTVSPropertyOp19
 70
     1
102
RTVSPropertyOp20
 70
     1
102
RTVSPropertyOp21
 70
     1
102
RTVSPropertyOp22
 70
     1
102
RTVSPropertyOp23
 70
     1
102
RTVSPropertyOp24
 70
     1
102
RTVSPropertyOp25
 70
     1
102
RTVSPropertyOp26
 70
     1
102
RTVSPropertyOp27
 70
     1
102
RTVSPropertyOp28
 70
     1
102
RTVSPropertyOp29
 70
     1
102
RTVSPropertyOp30
 70
     1
102
RTVSPropertyOp31
 70
     1
102
RTVSPropertyOp32
 70
     1
  0
XRECORD
  5
3AF
102
{ACAD_REACTORS
330
3AE
102
}
330
3AE
100
AcDbXrecord
280
     1
102
RTVSPropertyOp0
 70
     1
102
RTVSPropertyOp1
 70
     1
102
RTVSPropertyOp2
 70
     1
102
RTVSPropertyOp3
 70
     1
102
RTVSPropertyOp4
 70
     1
102
RTVSPropertyOp5
 70
     1
102
RTVSPropertyOp6
 70
     1
102
RTVSPropertyOp7
 70
     1
102
RTVSPropertyOp8
 70
     1
102
RTVSPropertyOp9
 70
     1
102
RTVSPropertyOp10
 70
     1
102
RTVSPropertyOp11
 70
     1
102
RTVSPropertyOp12
 70
     1
102
RTVSPropertyOp13
 70
     1
102
RTVSPropertyOp14
 70
     1
102
RTVSPropertyOp15
 70
     1
102
RTVSPropertyOp16
 70
     1
102
RTVSPropertyOp17
 70
     1
102
RTVSPropertyOp18
 70
     1
102
RTVSPropertyOp19
 70
     1
102
RTVSPropertyOp20
 70
     1
102
RTVSPropertyOp21
 70
     1
102
RTVSPropertyOp22
 70
     1
102
RTVSPropertyOp23
 70
     1
102
RTVSPropertyOp24
 70
     1
102
RTVSPropertyOp25
 70
     1
102
RTVSPropertyOp26
 70
     1
102
RTVSPropertyOp27
 70
     1
102
RTVSPropertyOp28
 70
     1
102
RTVSPropertyOp29
 70
     1
102
RTVSPropertyOp30
 70
     1
102
RTVSPropertyOp31
 70
     1
102
RTVSPropertyOp32
 70
     1
  0
XRECORD
  5
3B1
102
{ACAD_REACTORS
330
3B0
102
}
330
3B0
100
AcDbXrecord
280
     1
102
RTVSPropertyOp0
 70
     1
102
RTVSPropertyOp1
 70
     1
102
RTVSPropertyOp2
 70
     1
102
RTVSPropertyOp3
 70
     1
102
RTVSPropertyOp4
 70
     1
102
RTVSPropertyOp5
 70
     1
102
RTVSPropertyOp6
 70
     1
102
RTVSPropertyOp7
 70
     1
102
RTVSPropertyOp8
 70
     1
102
RTVSPropertyOp9
 70
     1
102
RTVSPropertyOp10
 70
     1
102
RTVSPropertyOp11
 70
     1
102
RTVSPropertyOp12
 70
     1
102
RTVSPropertyOp13
 70
     1
102
RTVSPropertyOp14
 70
     1
102
RTVSPropertyOp15
 70
     1
102
RTVSPropertyOp16
 70
     1
102
RTVSPropertyOp17
 70
     1
102
RTVSPropertyOp18
 70
     1
102
RTVSPropertyOp19
 70
     1
102
RTVSPropertyOp20
 70
     1
102
RTVSPropertyOp21
 70
     1
102
RTVSPropertyOp22
 70
     1
102
RTVSPropertyOp23
 70
     1
102
RTVSPropertyOp24
 70
     1
102
RTVSPropertyOp25
 70
     1
102
RTVSPropertyOp26
 70
     1
102
RTVSPropertyOp27
 70
     1
102
RTVSPropertyOp28
 70
     1
102
RTVSPropertyOp29
 70
     1
102
RTVSPropertyOp30
 70
     1
102
RTVSPropertyOp31
 70
     1
102
RTVSPropertyOp32
 70
     1
  0
XRECORD
  5
3B3
102
{ACAD_REACTORS
330
3B2
102
}
330
3B2
100
AcDbXrecord
280
     1
102
RTVSPropertyOp0
 70
     1
102
RTVSPropertyOp1
 70
     1
102
RTVSPropertyOp2
 70
     1
102
RTVSPropertyOp3
 70
     1
102
RTVSPropertyOp4
 70
     1
102
RTVSPropertyOp5
 70
     1
102
RTVSPropertyOp6
 70
     1
102
RTVSPropertyOp7
 70
     1
102
RTVSPropertyOp8
 70
     1
102
RTVSPropertyOp9
 70
     1
102
RTVSPropertyOp10
 70
     1
102
RTVSPropertyOp11
 70
     1
102
RTVSPropertyOp12
 70
     1
102
RTVSPropertyOp13
 70
     1
102
RTVSPropertyOp14
 70
     1
102
RTVSPropertyOp15
 70
     1
102
RTVSPropertyOp16
 70
     1
102
RTVSPropertyOp17
 70
     1
102
RTVSPropertyOp18
 70
     1
102
RTVSPropertyOp19
 70
     1
102
RTVSPropertyOp20
 70
     1
102
RTVSPropertyOp21
 70
     1
102
RTVSPropertyOp22
 70
     1
102
RTVSPropertyOp23
 70
     1
102
RTVSPropertyOp24
 70
     1
102
RTVSPropertyOp25
 70
     1
102
RTVSPropertyOp26
 70
     1
102
RTVSPropertyOp27
 70
     1
102
RTVSPropertyOp28
 70
     1
102
RTVSPropertyOp29
 70
     1
102
RTVSPropertyOp30
 70
     1
102
RTVSPropertyOp31
 70
     1
102
RTVSPropertyOp32
 70
     1
  0
XRECORD
  5
3B5
102
{ACAD_REACTORS
330
3B4
102
}
330
3B4
100
AcDbXrecord
280
     1
102
RTVSPropertyOp0
 70
     1
102
RTVSPropertyOp1
 70
     1
102
RTVSPropertyOp2
 70
     1
102
RTVSPropertyOp3
 70
     1
102
RTVSPropertyOp4
 70
     1
102
RTVSPropertyOp5
 70
     1
102
RTVSPropertyOp6
 70
     1
102
RTVSPropertyOp7
 70
     1
102
RTVSPropertyOp8
 70
     1
102
RTVSPropertyOp9
 70
     1
102
RTVSPropertyOp10
 70
     1
102
RTVSPropertyOp11
 70
     1
102
RTVSPropertyOp12
 70
     1
102
RTVSPropertyOp13
 70
     1
102
RTVSPropertyOp14
 70
     1
102
RTVSPropertyOp15
 70
     1
102
RTVSPropertyOp16
 70
     1
102
RTVSPropertyOp17
 70
     1
102
RTVSPropertyOp18
 70
     1
102
RTVSPropertyOp19
 70
     1
102
RTVSPropertyOp20
 70
     1
102
RTVSPropertyOp21
 70
     1
102
RTVSPropertyOp22
 70
     1
102
RTVSPropertyOp23
 70
     1
102
RTVSPropertyOp24
 70
     1
102
RTVSPropertyOp25
 70
     1
102
RTVSPropertyOp26
 70
     1
102
RTVSPropertyOp27
 70
     1
102
RTVSPropertyOp28
 70
     1
102
RTVSPropertyOp29
 70
     1
102
RTVSPropertyOp30
 70
     1
102
RTVSPropertyOp31
 70
     1
102
RTVSPropertyOp32
 70
     1
  0
XRECORD
  5
3BB
102
{ACAD_REACTORS
330
3BA
102
}
330
3BA
100
AcDbXrecord
280
     1
102
RTVSPropertyOp0
 70
     1
102
RTVSPropertyOp1
 70
     1
102
RTVSPropertyOp2
 70
     1
102
RTVSPropertyOp3
 70
     1
102
RTVSPropertyOp4
 70
     1
102
RTVSPropertyOp5
 70
     1
102
RTVSPropertyOp6
 70
     1
102
RTVSPropertyOp7
 70
     1
102
RTVSPropertyOp8
 70
     1
102
RTVSPropertyOp9
 70
     1
102
RTVSPropertyOp10
 70
     1
102
RTVSPropertyOp11
 70
     1
102
RTVSPropertyOp12
 70
     1
102
RTVSPropertyOp13
 70
     1
102
RTVSPropertyOp14
 70
     1
102
RTVSPropertyOp15
 70
     1
102
RTVSPropertyOp16
 70
     1
102
RTVSPropertyOp17
 70
     1
102
RTVSPropertyOp18
 70
     1
102
RTVSPropertyOp19
 70
     1
102
RTVSPropertyOp20
 70
     1
102
RTVSPropertyOp21
 70
     1
102
RTVSPropertyOp22
 70
     1
102
RTVSPropertyOp23
 70
     1
102
RTVSPropertyOp24
 70
     1
102
RTVSPropertyOp25
 70
     1
102
RTVSPropertyOp26
 70
     1
102
RTVSPropertyOp27
 70
     1
102
RTVSPropertyOp28
 70
     1
102
RTVSPropertyOp29
 70
     1
102
RTVSPropertyOp30
 70
     1
102
RTVSPropertyOp31
 70
     1
102
RTVSPropertyOp32
 70
     1
  0
XRECORD
  5
3CF
102
{ACAD_REACTORS
330
3CE
102
}
330
3CE
100
AcDbXrecord
280
     1
102
RTVSPropertyOp0
 70
     1
102
RTVSPropertyOp1
 70
     1
102
RTVSPropertyOp2
 70
     1
102
RTVSPropertyOp3
 70
     1
102
RTVSPropertyOp4
 70
     1
102
RTVSPropertyOp5
 70
     1
102
RTVSPropertyOp6
 70
     1
102
RTVSPropertyOp7
 70
     1
102
RTVSPropertyOp8
 70
     1
102
RTVSPropertyOp9
 70
     1
102
RTVSPropertyOp10
 70
     1
102
RTVSPropertyOp11
 70
     1
102
RTVSPropertyOp12
 70
     1
102
RTVSPropertyOp13
 70
     1
102
RTVSPropertyOp14
 70
     1
102
RTVSPropertyOp15
 70
     1
102
RTVSPropertyOp16
 70
     1
102
RTVSPropertyOp17
 70
     1
102
RTVSPropertyOp18
 70
     1
102
RTVSPropertyOp19
 70
     1
102
RTVSPropertyOp20
 70
     1
102
RTVSPropertyOp21
 70
     1
102
RTVSPropertyOp22
 70
     1
102
RTVSPropertyOp23
 70
     1
102
RTVSPropertyOp24
 70
     1
102
RTVSPropertyOp25
 70
     1
102
RTVSPropertyOp26
 70
     1
102
RTVSPropertyOp27
 70
     1
102
RTVSPropertyOp28
 70
     1
102
RTVSPropertyOp29
 70
     1
102
RTVSPropertyOp30
 70
     1
102
RTVSPropertyOp31
 70
     1
102
RTVSPropertyOp32
 70
     1
  0
XRECORD
  5
3C9
102
{ACAD_REACTORS
330
3C8
102
}
330
3C8
100
AcDbXrecord
280
     1
102
RTVSPropertyOp0
 70
     1
102
RTVSPropertyOp1
 70
     1
102
RTVSPropertyOp2
 70
     1
102
RTVSPropertyOp3
 70
     1
102
RTVSPropertyOp4
 70
     1
102
RTVSPropertyOp5
 70
     1
102
RTVSPropertyOp6
 70
     1
102
RTVSPropertyOp7
 70
     1
102
RTVSPropertyOp8
 70
     1
102
RTVSPropertyOp9
 70
     1
102
RTVSPropertyOp10
 70
     1
102
RTVSPropertyOp11
 70
     1
102
RTVSPropertyOp12
 70
     1
102
RTVSPropertyOp13
 70
     1
102
RTVSPropertyOp14
 70
     1
102
RTVSPropertyOp15
 70
     1
102
RTVSPropertyOp16
 70
     1
102
RTVSPropertyOp17
 70
     1
102
RTVSPropertyOp18
 70
     1
102
RTVSPropertyOp19
 70
     1
102
RTVSPropertyOp20
 70
     1
102
RTVSPropertyOp21
 70
     1
102
RTVSPropertyOp22
 70
     1
102
RTVSPropertyOp23
 70
     1
102
RTVSPropertyOp24
 70
     1
102
RTVSPropertyOp25
 70
     1
102
RTVSPropertyOp26
 70
     1
102
RTVSPropertyOp27
 70
     1
102
RTVSPropertyOp28
 70
     1
102
RTVSPropertyOp29
 70
     1
102
RTVSPropertyOp30
 70
     1
102
RTVSPropertyOp31
 70
     1
102
RTVSPropertyOp32
 70
     1
  0
XRECORD
  5
3D1
102
{ACAD_REACTORS
330
3D0
102
}
330
3D0
100
AcDbXrecord
280
     1
102
RTVSPropertyOp0
 70
     1
102
RTVSPropertyOp1
 70
     1
102
RTVSPropertyOp2
 70
     1
102
RTVSPropertyOp3
 70
     1
102
RTVSPropertyOp4
 70
     1
102
RTVSPropertyOp5
 70
     1
102
RTVSPropertyOp6
 70
     1
102
RTVSPropertyOp7
 70
     1
102
RTVSPropertyOp8
 70
     1
102
RTVSPropertyOp9
 70
     1
102
RTVSPropertyOp10
 70
     1
102
RTVSPropertyOp11
 70
     1
102
RTVSPropertyOp12
 70
     1
102
RTVSPropertyOp13
 70
     1
102
RTVSPropertyOp14
 70
     1
102
RTVSPropertyOp15
 70
     1
102
RTVSPropertyOp16
 70
     1
102
RTVSPropertyOp17
 70
     1
102
RTVSPropertyOp18
 70
     1
102
RTVSPropertyOp19
 70
     1
102
RTVSPropertyOp20
 70
     1
102
RTVSPropertyOp21
 70
     1
102
RTVSPropertyOp22
 70
     1
102
RTVSPropertyOp23
 70
     1
102
RTVSPropertyOp24
 70
     1
102
RTVSPropertyOp25
 70
     1
102
RTVSPropertyOp26
 70
     1
102
RTVSPropertyOp27
 70
     1
102
RTVSPropertyOp28
 70
     1
102
RTVSPropertyOp29
 70
     1
102
RTVSPropertyOp30
 70
     1
102
RTVSPropertyOp31
 70
     1
102
RTVSPropertyOp32
 70
     1
  0
XRECORD
  5
3BF
102
{ACAD_REACTORS
330
3BE
102
}
330
3BE
100
AcDbXrecord
280
     1
102
RTVSPropertyOp0
 70
     1
102
RTVSPropertyOp1
 70
     1
102
RTVSPropertyOp2
 70
     1
102
RTVSPropertyOp3
 70
     1
102
RTVSPropertyOp4
 70
     1
102
RTVSPropertyOp5
 70
     1
102
RTVSPropertyOp6
 70
     1
102
RTVSPropertyOp7
 70
     1
102
RTVSPropertyOp8
 70
     1
102
RTVSPropertyOp9
 70
     1
102
RTVSPropertyOp10
 70
     1
102
RTVSPropertyOp11
 70
     1
102
RTVSPropertyOp12
 70
     1
102
RTVSPropertyOp13
 70
     1
102
RTVSPropertyOp14
 70
     1
102
RTVSPropertyOp15
 70
     1
102
RTVSPropertyOp16
 70
     1
102
RTVSPropertyOp17
 70
     1
102
RTVSPropertyOp18
 70
     1
102
RTVSPropertyOp19
 70
     1
102
RTVSPropertyOp20
 70
     1
102
RTVSPropertyOp21
 70
     1
102
RTVSPropertyOp22
 70
     1
102
RTVSPropertyOp23
 70
     1
102
RTVSPropertyOp24
 70
     1
102
RTVSPropertyOp25
 70
     1
102
RTVSPropertyOp26
 70
     1
102
RTVSPropertyOp27
 70
     1
102
RTVSPropertyOp28
 70
     1
102
RTVSPropertyOp29
 70
     1
102
RTVSPropertyOp30
 70
     1
102
RTVSPropertyOp31
 70
     1
102
RTVSPropertyOp32
 70
     1
  0
XRECORD
  5
3DD
102
{ACAD_REACTORS
330
3DC
102
}
330
3DC
100
AcDbXrecord
280
     1
102
RTVSPropertyOp0
 70
     1
102
RTVSPropertyOp1
 70
     1
102
RTVSPropertyOp2
 70
     1
102
RTVSPropertyOp3
 70
     1
102
RTVSPropertyOp4
 70
     1
102
RTVSPropertyOp5
 70
     1
102
RTVSPropertyOp6
 70
     1
102
RTVSPropertyOp7
 70
     1
102
RTVSPropertyOp8
 70
     1
102
RTVSPropertyOp9
 70
     1
102
RTVSPropertyOp10
 70
     1
102
RTVSPropertyOp11
 70
     1
102
RTVSPropertyOp12
 70
     1
102
RTVSPropertyOp13
 70
     1
102
RTVSPropertyOp14
 70
     1
102
RTVSPropertyOp15
 70
     1
102
RTVSPropertyOp16
 70
     1
102
RTVSPropertyOp17
 70
     1
102
RTVSPropertyOp18
 70
     1
102
RTVSPropertyOp19
 70
     1
102
RTVSPropertyOp20
 70
     1
102
RTVSPropertyOp21
 70
     1
102
RTVSPropertyOp22
 70
     1
102
RTVSPropertyOp23
 70
     1
102
RTVSPropertyOp24
 70
     1
102
RTVSPropertyOp25
 70
     1
102
RTVSPropertyOp26
 70
     1
102
RTVSPropertyOp27
 70
     1
102
RTVSPropertyOp28
 70
     1
102
RTVSPropertyOp29
 70
     1
102
RTVSPropertyOp30
 70
     1
102
RTVSPropertyOp31
 70
     1
102
RTVSPropertyOp32
 70
     1
  0
XRECORD
  5
3E1
102
{ACAD_REACTORS
330
3E0
102
}
330
3E0
100
AcDbXrecord
280
     1
102
RTVSPropertyOp0
 70
     1
102
RTVSPropertyOp1
 70
     1
102
RTVSPropertyOp2
 70
     1
102
RTVSPropertyOp3
 70
     1
102
RTVSPropertyOp4
 70
     1
102
RTVSPropertyOp5
 70
     1
102
RTVSPropertyOp6
 70
     1
102
RTVSPropertyOp7
 70
     1
102
RTVSPropertyOp8
 70
     1
102
RTVSPropertyOp9
 70
     1
102
RTVSPropertyOp10
 70
     1
102
RTVSPropertyOp11
 70
     1
102
RTVSPropertyOp12
 70
     1
102
RTVSPropertyOp13
 70
     1
102
RTVSPropertyOp14
 70
     1
102
RTVSPropertyOp15
 70
     1
102
RTVSPropertyOp16
 70
     1
102
RTVSPropertyOp17
 70
     1
102
RTVSPropertyOp18
 70
     1
102
RTVSPropertyOp19
 70
     1
102
RTVSPropertyOp20
 70
     1
102
RTVSPropertyOp21
 70
     1
102
RTVSPropertyOp22
 70
     1
102
RTVSPropertyOp23
 70
     1
102
RTVSPropertyOp24
 70
     1
102
RTVSPropertyOp25
 70
     1
102
RTVSPropertyOp26
 70
     1
102
RTVSPropertyOp27
 70
     1
102
RTVSPropertyOp28
 70
     1
102
RTVSPropertyOp29
 70
     1
102
RTVSPropertyOp30
 70
     1
102
RTVSPropertyOp31
 70
     1
102
RTVSPropertyOp32
 70
     1
  0
XRECORD
  5
3DB
102
{ACAD_REACTORS
330
3DA
102
}
330
3DA
100
AcDbXrecord
280
     1
102
RTVSPropertyOp0
 70
     1
102
RTVSPropertyOp1
 70
     1
102
RTVSPropertyOp2
 70
     1
102
RTVSPropertyOp3
 70
     1
102
RTVSPropertyOp4
 70
     1
102
RTVSPropertyOp5
 70
     1
102
RTVSPropertyOp6
 70
     1
102
RTVSPropertyOp7
 70
     1
102
RTVSPropertyOp8
 70
     1
102
RTVSPropertyOp9
 70
     1
102
RTVSPropertyOp10
 70
     1
102
RTVSPropertyOp11
 70
     1
102
RTVSPropertyOp12
 70
     1
102
RTVSPropertyOp13
 70
     1
102
RTVSPropertyOp14
 70
     1
102
RTVSPropertyOp15
 70
     1
102
RTVSPropertyOp16
 70
     1
102
RTVSPropertyOp17
 70
     1
102
RTVSPropertyOp18
 70
     1
102
RTVSPropertyOp19
 70
     1
102
RTVSPropertyOp20
 70
     1
102
RTVSPropertyOp21
 70
     1
102
RTVSPropertyOp22
 70
     1
102
RTVSPropertyOp23
 70
     1
102
RTVSPropertyOp24
 70
     1
102
RTVSPropertyOp25
 70
     1
102
RTVSPropertyOp26
 70
     1
102
RTVSPropertyOp27
 70
     1
102
RTVSPropertyOp28
 70
     1
102
RTVSPropertyOp29
 70
     1
102
RTVSPropertyOp30
 70
     1
102
RTVSPropertyOp31
 70
     1
102
RTVSPropertyOp32
 70
     1
  0
XRECORD
  5
3DF
102
{ACAD_REACTORS
330
3DE
102
}
330
3DE
100
AcDbXrecord
280
     1
102
RTVSPropertyOp0
 70
     1
102
RTVSPropertyOp1
 70
     1
102
RTVSPropertyOp2
 70
     1
102
RTVSPropertyOp3
 70
     1
102
RTVSPropertyOp4
 70
     1
102
RTVSPropertyOp5
 70
     1
102
RTVSPropertyOp6
 70
     1
102
RTVSPropertyOp7
 70
     1
102
RTVSPropertyOp8
 70
     1
102
RTVSPropertyOp9
 70
     1
102
RTVSPropertyOp10
 70
     1
102
RTVSPropertyOp11
 70
     1
102
RTVSPropertyOp12
 70
     1
102
RTVSPropertyOp13
 70
     1
102
RTVSPropertyOp14
 70
     1
102
RTVSPropertyOp15
 70
     1
102
RTVSPropertyOp16
 70
     1
102
RTVSPropertyOp17
 70
     1
102
RTVSPropertyOp18
 70
     1
102
RTVSPropertyOp19
 70
     1
102
RTVSPropertyOp20
 70
     1
102
RTVSPropertyOp21
 70
     1
102
RTVSPropertyOp22
 70
     1
102
RTVSPropertyOp23
 70
     1
102
RTVSPropertyOp24
 70
     1
102
RTVSPropertyOp25
 70
     1
102
RTVSPropertyOp26
 70
     1
102
RTVSPropertyOp27
 70
     1
102
RTVSPropertyOp28
 70
     1
102
RTVSPropertyOp29
 70
     1
102
RTVSPropertyOp30
 70
     1
102
RTVSPropertyOp31
 70
     1
102
RTVSPropertyOp32
 70
     1
  0
XRECORD
  5
3D5
102
{ACAD_REACTORS
330
3D4
102
}
330
3D4
100
AcDbXrecord
280
     1
102
RTVSPropertyOp0
 70
     1
102
RTVSPropertyOp1
 70
     1
102
RTVSPropertyOp2
 70
     1
102
RTVSPropertyOp3
 70
     1
102
RTVSPropertyOp4
 70
     1
102
RTVSPropertyOp5
 70
     1
102
RTVSPropertyOp6
 70
     1
102
RTVSPropertyOp7
 70
     1
102
RTVSPropertyOp8
 70
     1
102
RTVSPropertyOp9
 70
     1
102
RTVSPropertyOp10
 70
     1
102
RTVSPropertyOp11
 70
     1
102
RTVSPropertyOp12
 70
     1
102
RTVSPropertyOp13
 70
     1
102
RTVSPropertyOp14
 70
     1
102
RTVSPropertyOp15
 70
     1
102
RTVSPropertyOp16
 70
     1
102
RTVSPropertyOp17
 70
     1
102
RTVSPropertyOp18
 70
     1
102
RTVSPropertyOp19
 70
     1
102
RTVSPropertyOp20
 70
     1
102
RTVSPropertyOp21
 70
     1
102
RTVSPropertyOp22
 70
     1
102
RTVSPropertyOp23
 70
     1
102
RTVSPropertyOp24
 70
     1
102
RTVSPropertyOp25
 70
     1
102
RTVSPropertyOp26
 70
     1
102
RTVSPropertyOp27
 70
     1
102
RTVSPropertyOp28
 70
     1
102
RTVSPropertyOp29
 70
     1
102
RTVSPropertyOp30
 70
     1
102
RTVSPropertyOp31
 70
     1
102
RTVSPropertyOp32
 70
     1
  0
XRECORD
  5
3D7
102
{ACAD_REACTORS
330
3D6
102
}
330
3D6
100
AcDbXrecord
280
     1
102
RTVSPropertyOp0
 70
     1
102
RTVSPropertyOp1
 70
     1
102
RTVSPropertyOp2
 70
     1
102
RTVSPropertyOp3
 70
     1
102
RTVSPropertyOp4
 70
     1
102
RTVSPropertyOp5
 70
     1
102
RTVSPropertyOp6
 70
     1
102
RTVSPropertyOp7
 70
     1
102
RTVSPropertyOp8
 70
     1
102
RTVSPropertyOp9
 70
     1
102
RTVSPropertyOp10
 70
     1
102
RTVSPropertyOp11
 70
     1
102
RTVSPropertyOp12
 70
     1
102
RTVSPropertyOp13
 70
     1
102
RTVSPropertyOp14
 70
     1
102
RTVSPropertyOp15
 70
     1
102
RTVSPropertyOp16
 70
     1
102
RTVSPropertyOp17
 70
     1
102
RTVSPropertyOp18
 70
     1
102
RTVSPropertyOp19
 70
     1
102
RTVSPropertyOp20
 70
     1
102
RTVSPropertyOp21
 70
     1
102
RTVSPropertyOp22
 70
     1
102
RTVSPropertyOp23
 70
     1
102
RTVSPropertyOp24
 70
     1
102
RTVSPropertyOp25
 70
     1
102
RTVSPropertyOp26
 70
     1
102
RTVSPropertyOp27
 70
     1
102
RTVSPropertyOp28
 70
     1
102
RTVSPropertyOp29
 70
     1
102
RTVSPropertyOp30
 70
     1
102
RTVSPropertyOp31
 70
     1
102
RTVSPropertyOp32
 70
     1
  0
XRECORD
  5
3C7
102
{ACAD_REACTORS
330
3C6
102
}
330
3C6
100
AcDbXrecord
280
     1
102
RTVSPropertyOp0
 70
     1
102
RTVSPropertyOp1
 70
     1
102
RTVSPropertyOp2
 70
     1
102
RTVSPropertyOp3
 70
     1
102
RTVSPropertyOp4
 70
     1
102
RTVSPropertyOp5
 70
     1
102
RTVSPropertyOp6
 70
     1
102
RTVSPropertyOp7
 70
     1
102
RTVSPropertyOp8
 70
     1
102
RTVSPropertyOp9
 70
     1
102
RTVSPropertyOp10
 70
     1
102
RTVSPropertyOp11
 70
     1
102
RTVSPropertyOp12
 70
     1
102
RTVSPropertyOp13
 70
     1
102
RTVSPropertyOp14
 70
     1
102
RTVSPropertyOp15
 70
     1
102
RTVSPropertyOp16
 70
     1
102
RTVSPropertyOp17
 70
     1
102
RTVSPropertyOp18
 70
     1
102
RTVSPropertyOp19
 70
     1
102
RTVSPropertyOp20
 70
     1
102
RTVSPropertyOp21
 70
     1
102
RTVSPropertyOp22
 70
     1
102
RTVSPropertyOp23
 70
     1
102
RTVSPropertyOp24
 70
     1
102
RTVSPropertyOp25
 70
     1
102
RTVSPropertyOp26
 70
     1
102
RTVSPropertyOp27
 70
     1
102
RTVSPropertyOp28
 70
     1
102
RTVSPropertyOp29
 70
     1
102
RTVSPropertyOp30
 70
     1
102
RTVSPropertyOp31
 70
     1
102
RTVSPropertyOp32
 70
     1
  0
XRECORD
  5
3B9
102
{ACAD_REACTORS
330
3B8
102
}
330
3B8
100
AcDbXrecord
280
     1
102
RTVSPropertyOp0
 70
     1
102
RTVSPropertyOp1
 70
     1
102
RTVSPropertyOp2
 70
     1
102
RTVSPropertyOp3
 70
     1
102
RTVSPropertyOp4
 70
     1
102
RTVSPropertyOp5
 70
     1
102
RTVSPropertyOp6
 70
     1
102
RTVSPropertyOp7
 70
     1
102
RTVSPropertyOp8
 70
     1
102
RTVSPropertyOp9
 70
     1
102
RTVSPropertyOp10
 70
     1
102
RTVSPropertyOp11
 70
     1
102
RTVSPropertyOp12
 70
     1
102
RTVSPropertyOp13
 70
     1
102
RTVSPropertyOp14
 70
     1
102
RTVSPropertyOp15
 70
     1
102
RTVSPropertyOp16
 70
     1
102
RTVSPropertyOp17
 70
     1
102
RTVSPropertyOp18
 70
     1
102
RTVSPropertyOp19
 70
     1
102
RTVSPropertyOp20
 70
     1
102
RTVSPropertyOp21
 70
     1
102
RTVSPropertyOp22
 70
     1
102
RTVSPropertyOp23
 70
     1
102
RTVSPropertyOp24
 70
     1
102
RTVSPropertyOp25
 70
     1
102
RTVSPropertyOp26
 70
     1
102
RTVSPropertyOp27
 70
     1
102
RTVSPropertyOp28
 70
     1
102
RTVSPropertyOp29
 70
     1
102
RTVSPropertyOp30
 70
     1
102
RTVSPropertyOp31
 70
     1
102
RTVSPropertyOp32
 70
     1
  0
XRECORD
  5
3D9
102
{ACAD_REACTORS
330
3D8
102
}
330
3D8
100
AcDbXrecord
280
     1
102
RTVSPropertyOp0
 70
     1
102
RTVSPropertyOp1
 70
     1
102
RTVSPropertyOp2
 70
     1
102
RTVSPropertyOp3
 70
     1
102
RTVSPropertyOp4
 70
     1
102
RTVSPropertyOp5
 70
     1
102
RTVSPropertyOp6
 70
     1
102
RTVSPropertyOp7
 70
     1
102
RTVSPropertyOp8
 70
     1
102
RTVSPropertyOp9
 70
     1
102
RTVSPropertyOp10
 70
     1
102
RTVSPropertyOp11
 70
     1
102
RTVSPropertyOp12
 70
     1
102
RTVSPropertyOp13
 70
     1
102
RTVSPropertyOp14
 70
     1
102
RTVSPropertyOp15
 70
     1
102
RTVSPropertyOp16
 70
     1
102
RTVSPropertyOp17
 70
     1
102
RTVSPropertyOp18
 70
     1
102
RTVSPropertyOp19
 70
     1
102
RTVSPropertyOp20
 70
     1
102
RTVSPropertyOp21
 70
     1
102
RTVSPropertyOp22
 70
     1
102
RTVSPropertyOp23
 70
     1
102
RTVSPropertyOp24
 70
     1
102
RTVSPropertyOp25
 70
     1
102
RTVSPropertyOp26
 70
     1
102
RTVSPropertyOp27
 70
     1
102
RTVSPropertyOp28
 70
     1
102
RTVSPropertyOp29
 70
     1
102
RTVSPropertyOp30
 70
     1
102
RTVSPropertyOp31
 70
     1
102
RTVSPropertyOp32
 70
     1
  0
ENDSEC
  0
EOF
