  0
SECTION
  2
HEADER
  9
$ACADVER
  1
AC1015
  9
$ACADMAINTVER
 70
    20
  9
$DWGCODEPAGE
  3
ANSI_1252
  9
$INSBASE
 10
0.0
 20
0.0
 30
0.0
  9
$EXTMIN
 10
-7.202146117577967
 20
-24.90234145068371
 30
-8.041379516992492
  9
$EXTMAX
 10
208.1756605861892
 20
24.9176037322236
 30
0.0457775313939237
  9
$LIMMIN
 10
0.0
 20
0.0
  9
$LIMMAX
 10
420.0
 20
297.0
  9
$ORTHOMODE
 70
     0
  9
$REGENMODE
 70
     1
  9
$FILLMODE
 70
     1
  9
$QTEXTMODE
 70
     0
  9
$MIRRTEXT
 70
     1
  9
$LTSCALE
 40
1.0
  9
$ATTMODE
 70
     1
  9
$TEXTSIZE
 40
2.5
  9
$TRACEWID
 40
1.0
  9
$TEXTSTYLE
  7
STANDARD
  9
$CLAYER
  8
0
  9
$CELTYPE
  6
ByLayer
  9
$CECOLOR
 62
   256
  9
$CELTSCALE
 40
1.0
  9
$DISPSILH
 70
     0
  9
$DIMSCALE
 40
1.0
  9
$DIMASZ
 40
2.5
  9
$DIMEXO
 40
0.625
  9
$DIMDLI
 40
3.75
  9
$DIMRND
 40
0.0
  9
$DIMDLE
 40
0.0
  9
$DIMEXE
 40
1.25
  9
$DIMTP
 40
0.0
  9
$DIMTM
 40
0.0
  9
$DIMTXT
 40
2.5
  9
$DIMCEN
 40
2.5
  9
$DIMTSZ
 40
0.0
  9
$DIMTOL
 70
     0
  9
$DIMLIM
 70
     0
  9
$DIMTIH
 70
     0
  9
$DIMTOH
 70
     0
  9
$DIMSE1
 70
     0
  9
$DIMSE2
 70
     0
  9
$DIMTAD
 70
     1
  9
$DIMZIN
 70
     8
  9
$DIMBLK
  1

  9
$DIMASO
 70
     1
  9
$DIMSHO
 70
     1
  9
$DIMPOST
  1

  9
$DIMAPOST
  1

  9
$DIMALT
 70
     0
  9
$DIMALTD
 70
     3
  9
$DIMALTF
 40
0.03937007874016
  9
$DIMLFAC
 40
1.0
  9
$DIMTOFL
 70
     1
  9
$DIMTVP
 40
0.0
  9
$DIMTIX
 70
     0
  9
$DIMSOXD
 70
     0
  9
$DIMSAH
 70
     0
  9
$DIMBLK1
  1

  9
$DIMBLK2
  1

  9
$DIMSTYLE
  2
ISO-25
  9
$DIMCLRD
 70
     0
  9
$DIMCLRE
 70
     0
  9
$DIMCLRT
 70
     0
  9
$DIMTFAC
 40
1.0
  9
$DIMGAP
 40
0.625
  9
$DIMJUST
 70
     0
  9
$DIMSD1
 70
     0
  9
$DIMSD2
 70
     0
  9
$DIMTOLJ
 70
     1
  9
$DIMTZIN
 70
     0
  9
$DIMALTZ
 70
     0
  9
$DIMALTTZ
 70
     0
  9
$DIMUPT
 70
     0
  9
$DIMDEC
 70
     4
  9
$DIMTDEC
 70
     4
  9
$DIMALTU
 70
     2
  9
$DIMALTTD
 70
     2
  9
$DIMTXSTY
  7
STANDARD
  9
$DIMAUNIT
 70
     0
  9
$DIMADEC
 70
     0
  9
$DIMALTRND
 40
0.0
  9
$DIMAZIN
 70
     0
  9
$DIMDSEP
 70
    46
  9
$DIMATFIT
 70
     3
  9
$DIMFRAC
 70
     0
  9
$DIMLDRBLK
  1

  9
$DIMLUNIT
 70
     2
  9
$DIMLWD
 70
    -2
  9
$DIMLWE
 70
    -2
  9
$DIMTMOVE
 70
     0
  9
$LUNITS
 70
     2
  9
$LUPREC
 70
     4
  9
$SKETCHINC
 40
1.0
  9
$FILLETRAD
 40
10.0
  9
$AUNITS
 70
     0
  9
$AUPREC
 70
     0
  9
$MENU
  1
.
  9
$ELEVATION
 40
0.0
  9
$PELEVATION
 40
0.0
  9
$THICKNESS
 40
0.0
  9
$LIMCHECK
 70
     0
  9
$CHAMFERA
 40
10.0
  9
$CHAMFERB
 40
10.0
  9
$CHAMFERC
 40
0.0
  9
$CHAMFERD
 40
0.0
  9
$SKPOLY
 70
     0
  9
$TDCREATE
 40
2454456.618506945
  9
$TDUCREATE
 40
2454456.389340278
  9
$TDUPDATE
 40
2454456.632792604
  9
$TDUUPDATE
 40
2454456.403625937
  9
$TDINDWG
 40
0.0021457407
  9
$TDUSRTIMER
 40
0.0021457407
  9
$USRTIMER
 70
     1
  9
$ANGBASE
 50
0.0
  9
$ANGDIR
 70
     0
  9
$PDMODE
 70
     0
  9
$PDSIZE
 40
0.0
  9
$PLINEWID
 40
0.0
  9
$SPLFRAME
 70
     0
  9
$SPLINETYPE
 70
     6
  9
$SPLINESEGS
 70
     8
  9
$HANDSEED
  5
16C
  9
$SURFTAB1
 70
     6
  9
$SURFTAB2
 70
     6
  9
$SURFTYPE
 70
     6
  9
$SURFU
 70
     6
  9
$SURFV
 70
     6
  9
$UCSBASE
  2

  9
$UCSNAME
  2

  9
$UCSORG
 10
0.0
 20
0.0
 30
0.0
  9
$UCSXDIR
 10
1.0
 20
0.0
 30
0.0
  9
$UCSYDIR
 10
0.0
 20
1.0
 30
0.0
  9
$UCSORTHOREF
  2

  9
$UCSORTHOVIEW
 70
     0
  9
$UCSORGTOP
 10
0.0
 20
0.0
 30
0.0
  9
$UCSORGBOTTOM
 10
0.0
 20
0.0
 30
0.0
  9
$UCSORGLEFT
 10
0.0
 20
0.0
 30
0.0
  9
$UCSORGRIGHT
 10
0.0
 20
0.0
 30
0.0
  9
$UCSORGFRONT
 10
0.0
 20
0.0
 30
0.0
  9
$UCSORGBACK
 10
0.0
 20
0.0
 30
0.0
  9
$PUCSBASE
  2

  9
$PUCSNAME
  2

  9
$PUCSORG
 10
0.0
 20
0.0
 30
0.0
  9
$PUCSXDIR
 10
1.0
 20
0.0
 30
0.0
  9
$PUCSYDIR
 10
0.0
 20
1.0
 30
0.0
  9
$PUCSORTHOREF
  2

  9
$PUCSORTHOVIEW
 70
     0
  9
$PUCSORGTOP
 10
0.0
 20
0.0
 30
0.0
  9
$PUCSORGBOTTOM
 10
0.0
 20
0.0
 30
0.0
  9
$PUCSORGLEFT
 10
0.0
 20
0.0
 30
0.0
  9
$PUCSORGRIGHT
 10
0.0
 20
0.0
 30
0.0
  9
$PUCSORGFRONT
 10
0.0
 20
0.0
 30
0.0
  9
$PUCSORGBACK
 10
0.0
 20
0.0
 30
0.0
  9
$USERI1
 70
     0
  9
$USERI2
 70
     0
  9
$USERI3
 70
     0
  9
$USERI4
 70
     0
  9
$USERI5
 70
     0
  9
$USERR1
 40
0.0
  9
$USERR2
 40
0.0
  9
$USERR3
 40
0.0
  9
$USERR4
 40
0.0
  9
$USERR5
 40
0.0
  9
$WORLDVIEW
 70
     1
  9
$SHADEDGE
 70
     3
  9
$SHADEDIF
 70
    70
  9
$TILEMODE
 70
     1
  9
$MAXACTVP
 70
    64
  9
$PINSBASE
 10
0.0
 20
0.0
 30
0.0
  9
$PLIMCHECK
 70
     0
  9
$PEXTMIN
 10
0.0
 20
0.0
 30
0.0
  9
$PEXTMAX
 10
1000.0
 20
1000.0
 30
0.0
  9
$PLIMMIN
 10
0.0
 20
0.0
  9
$PLIMMAX
 10
100.0
 20
100.0
  9
$UNITMODE
 70
     0
  9
$VISRETAIN
 70
     1
  9
$PLINEGEN
 70
     0
  9
$PSLTSCALE
 70
     1
  9
$TREEDEPTH
 70
  3020
  9
$CMLSTYLE
  2
Standard
  9
$CMLJUST
 70
     0
  9
$CMLSCALE
 40
1.0
  9
$PROXYGRAPHICS
 70
     1
  9
$MEASUREMENT
 70
     0
  9
$CELWEIGHT
370
    -1
  9
$ENDCAPS
280
     0
  9
$JOINSTYLE
280
     0
  9
$LWDISPLAY
290
     0
  9
$INSUNITS
 70
     0
  9
$HYPERLINKBASE
  1

  9
$STYLESHEET
  1

  9
$XEDIT
290
     1
  9
$CEPSNTYPE
380
     0
  9
$PSTYLEMODE
290
     1
  9
$FINGERPRINTGUID
  2
{689D2BCC-98A1-4F4E-8988-D34360095110}
  9
$VERSIONGUID
  2
{0DAB72C9-6480-415A-835D-2096B871BE23}
  9
$EXTNAMES
290
     1
  9
$PSVPSCALE
 40
0.0
  9
$OLESTARTUP
290
     0
  0
ENDSEC
  0
SECTION
  2
CLASSES
  0
CLASS
  1
ACDBDICTIONARYWDFLT
  2
AcDbDictionaryWithDefault
  3
ObjectDBX Classes
 90
        0
280
     0
281
     0
  0
CLASS
  1
MATERIAL
  2
AcDbMaterial
  3
ObjectDBX Classes
 90
     1024
280
     0
281
     0
  0
CLASS
  1
VISUALSTYLE
  2
AcDbVisualStyle
  3
ObjectDBX Classes
 90
     4095
280
     0
281
     0
  0
CLASS
  1
TABLESTYLE
  2
AcDbTableStyle
  3
ObjectDBX Classes
 90
     4095
280
     0
281
     0
  0
CLASS
  1
DICTIONARYVAR
  2
AcDbDictionaryVar
  3
ObjectDBX Classes
 90
        0
280
     0
281
     0
  0
CLASS
  1
ACDBPLACEHOLDER
  2
AcDbPlaceHolder
  3
ObjectDBX Classes
 90
        0
280
     0
281
     0
  0
CLASS
  1
LAYOUT
  2
AcDbLayout
  3
ObjectDBX Classes
 90
        0
280
     0
281
     0
  0
ENDSEC
  0
SECTION
  2
TABLES
  0
TABLE
  2
VPORT
  5
113
330
0
100
AcDbSymbolTable
 70
     1
  0
VPORT
  5
145
330
113
100
AcDbSymbolTableRecord
100
AcDbViewportTableRecord
  2
*ACTIVE
 70
     0
 10
0.0
 20
0.0
 11
1.0
 21
1.0
 12
100.4867572343056
 22
0.007631140769945
 13
0.0
 23
0.0
 14
10.0
 24
10.0
 15
10.0
 25
10.0
 16
0.0
 26
0.0
 36
1.0
 17
0.0
 27
0.0
 37
0.0
 40
124.4599840838927
 41
1.737259343148357
 42
50.0
 43
0.0
 44
0.0
 50
0.0
 51
0.0
 71
     0
 72
   100
 73
     1
 74
     3
 75
     0
 76
     0
 77
     0
 78
     0
281
     0
 65
     1
110
0.0
120
0.0
130
0.0
111
1.0
121
0.0
131
0.0
112
0.0
122
1.0
132
0.0
 79
     0
146
0.0
  0
ENDTAB
  0
TABLE
  2
LTYPE
  5
110
330
0
100
AcDbSymbolTable
 70
     4
  0
LTYPE
  5
133
330
110
100
AcDbSymbolTableRecord
100
AcDbLinetypeTableRecord
  2
ByBlock
 70
     0
  3

 72
    65
 73
     0
 40
0.0
  0
LTYPE
  5
134
330
110
100
AcDbSymbolTableRecord
100
AcDbLinetypeTableRecord
  2
ByLayer
 70
     0
  3

 72
    65
 73
     0
 40
0.0
  0
LTYPE
  5
135
330
110
100
AcDbSymbolTableRecord
100
AcDbLinetypeTableRecord
  2
CONTINUOUS
 70
     0
  3
Solid line
 72
    65
 73
     0
 40
0.0
  0
LTYPE
  5
146
330
110
100
AcDbSymbolTableRecord
100
AcDbLinetypeTableRecord
  2
CNS_SOLID
 70
     0
  3

 72
    65
 73
     0
 40
0.0
  0
LTYPE
  5
147
330
110
100
AcDbSymbolTableRecord
100
AcDbLinetypeTableRecord
  2
CNS_DASHED
 70
     0
  3

 72
    65
 73
     2
 40
2.0
 49
1.0
 74
     0
 49
-1.0
 74
     0
  0
LTYPE
  5
148
330
110
100
AcDbSymbolTableRecord
100
AcDbLinetypeTableRecord
  2
CNS_CENTER
 70
     0
  3

 72
    65
 73
     4
 40
2.0
 49
0.45
 74
     0
 49
-0.5
 74
     0
 49
0.05
 74
     0
 49
-0.5
 74
     0
  0
ENDTAB
  0
TABLE
  2
LAYER
  5
10D
330
0
100
AcDbSymbolTable
 70
     9
  0
LAYER
  5
130
330
10D
100
AcDbSymbolTableRecord
100
AcDbLayerTableRecord
  2
0
 70
     0
 62
     7
  6
CONTINUOUS
370
    -3
390
11A
  0
LAYER
  5
149
330
10D
100
AcDbSymbolTableRecord
100
AcDbLayerTableRecord
  2
VIS
 70
     0
 62
     7
  6
CNS_SOLID
370
    -3
390
11A
  0
LAYER
  5
14A
330
10D
100
AcDbSymbolTableRecord
100
AcDbLayerTableRecord
  2
THIN
 70
     0
 62
     7
  6
CNS_SOLID
370
    -3
390
11A
  0
LAYER
  5
14B
330
10D
100
AcDbSymbolTableRecord
100
AcDbLayerTableRecord
  2
HIDDEN
 70
     0
 62
     7
  6
CNS_DASHED
370
    -3
390
11A
  0
LAYER
  5
14C
330
10D
100
AcDbSymbolTableRecord
100
AcDbLayerTableRecord
  2
CENTER
 70
     0
 62
     7
  6
CNS_CENTER
370
    -3
390
11A
  0
LAYER
  5
14D
330
10D
100
AcDbSymbolTableRecord
100
AcDbLayerTableRecord
  2
CENTER2
 70
     0
 62
     7
  6
CNS_CENTER
370
    -3
390
11A
  0
LAYER
  5
14E
330
10D
100
AcDbSymbolTableRecord
100
AcDbLayerTableRecord
  2
THREAD
 70
     0
 62
     7
  6
CNS_SOLID
370
    -3
390
11A
  0
LAYER
  5
14F
330
10D
100
AcDbSymbolTableRecord
100
AcDbLayerTableRecord
  2
ATTRIB
 70
     0
 62
     7
  6
CNS_SOLID
370
    -3
390
11A
  0
LAYER
  5
150
330
10D
100
AcDbSymbolTableRecord
100
AcDbLayerTableRecord
  2
HATCH
 70
     0
 62
     7
  6
CNS_SOLID
370
    -3
390
11A
  0
ENDTAB
  0
TABLE
  2
STYLE
  5
10E
330
0
100
AcDbSymbolTable
 70
     1
  0
STYLE
  5
131
330
10E
100
AcDbSymbolTableRecord
100
AcDbTextStyleTableRecord
  2
STANDARD
 70
     0
 40
0.0
 41
1.0
 50
0.0
 71
     0
 42
2.5
  3
txt
  4

  0
ENDTAB
  0
TABLE
  2
VIEW
  5
111
330
0
100
AcDbSymbolTable
 70
     2
  0
ENDTAB
  0
TABLE
  2
UCS
  5
112
330
0
100
AcDbSymbolTable
 70
     0
  0
ENDTAB
  0
TABLE
  2
APPID
  5
114
330
0
100
AcDbSymbolTable
 70
     1
  0
APPID
  5
132
330
114
100
AcDbSymbolTableRecord
100
AcDbRegAppTableRecord
  2
ACAD
 70
     0
  0
ENDTAB
  0
TABLE
  2
DIMSTYLE
  5
115
330
0
100
AcDbSymbolTable
 70
     1
100
AcDbDimStyleTable
 71
     0
  0
DIMSTYLE
105
151
330
115
100
AcDbSymbolTableRecord
100
AcDbDimStyleTableRecord
  2
ISO-25
 70
     0
 41
2.5
 42
0.625
 43
3.75
 44
1.25
 73
     0
 74
     0
 77
     1
 78
     8
140
2.5
141
2.5
143
0.03937007874016
147
0.625
171
     3
172
     1
274
     3
279
     2
284
     8
285
     8
286
     8
340
131
  0
ENDTAB
  0
TABLE
  2
BLOCK_RECORD
  5
10C
330
0
100
AcDbSymbolTable
 70
     2
  0
BLOCK_RECORD
  5
141
330
10C
100
AcDbSymbolTableRecord
100
AcDbBlockTableRecord
  2
*Model_Space
340
144
  0
BLOCK_RECORD
  5
13D
330
10C
100
AcDbSymbolTableRecord
100
AcDbBlockTableRecord
  2
*Paper_Space
340
140
  0
BLOCK_RECORD
  5
153
330
10C
100
AcDbSymbolTableRecord
100
AcDbBlockTableRecord
  2
$MODEL_SPACE
340
0
  0
BLOCK_RECORD
  5
155
330
10C
100
AcDbSymbolTableRecord
100
AcDbBlockTableRecord
  2
$PAPER_SPACE
340
0
  0
ENDTAB
  0
ENDSEC
  0
SECTION
  2
BLOCKS
  0
BLOCK
  5
142
330
141
100
AcDbEntity
  8
0
100
AcDbBlockBegin
  2
*Model_Space
 70
     0
 10
0.0
 20
0.0
 30
0.0
  3
*Model_Space
  1

  0
ENDBLK
  5
143
330
141
100
AcDbEntity
  8
0
100
AcDbBlockEnd
  0
BLOCK
  5
13E
330
13D
100
AcDbEntity
 67
     1
  8
0
100
AcDbBlockBegin
  2
*Paper_Space
 70
     0
 10
0.0
 20
0.0
 30
0.0
  3
*Paper_Space
  1

  0
ENDBLK
  5
13F
330
13D
100
AcDbEntity
 67
     1
  8
0
100
AcDbBlockEnd
  0
BLOCK
  5
154
330
153
100
AcDbEntity
  8
0
100
AcDbBlockBegin
  2
$MODEL_SPACE
 70
     0
 10
0.0
 20
0.0
 30
0.0
  3
$MODEL_SPACE
  1

  0
ENDBLK
  5
21
330
153
100
AcDbEntity
  8
0
100
AcDbBlockEnd
  0
BLOCK
  5
156
330
155
100
AcDbEntity
  8
0
100
AcDbBlockBegin
  2
$PAPER_SPACE
 70
     0
 10
0.0
 20
0.0
 30
0.0
  3
$PAPER_SPACE
  1

  0
ENDBLK
  5
1D
330
155
100
AcDbEntity
  8
0
100
AcDbBlockEnd
  0
ENDSEC
  0
SECTION
  2
ENTITIES
  0
LINE
  5
35
330
141
100
AcDbEntity
  8
HIDDEN
100
AcDbLine
 10
188.3
 20
-3.000000000000011
 30
0.0
 11
189.8
 21
-3.000000000000011
 31
0.0
  0
LINE
  5
36
330
141
100
AcDbEntity
  8
HIDDEN
100
AcDbLine
 10
189.8
 20
2.999999999999987
 30
0.0
 11
188.3
 21
2.999999999999987
 31
0.0
  0
LINE
  5
37
330
141
100
AcDbEntity
  8
HIDDEN
100
AcDbLine
 10
188.3
 20
-4.800000000000014
 30
0.0
 11
189.8
 21
-4.800000000000014
 31
0.0
  0
LINE
  5
38
330
141
100
AcDbEntity
  8
HIDDEN
100
AcDbLine
 10
189.8
 20
4.799999999999988
 30
0.0
 11
188.3
 21
4.799999999999988
 31
0.0
  0
LINE
  5
39
330
141
100
AcDbEntity
  8
HIDDEN
100
AcDbLine
 10
189.8
 20
2.199999999999988
 30
0.0
 11
188.3
 21
2.199999999999988
 31
0.0
  0
LINE
  5
3A
330
141
100
AcDbEntity
  8
HIDDEN
100
AcDbLine
 10
188.3
 20
-2.200000000000013
 30
0.0
 11
189.8
 21
-2.200000000000013
 31
0.0
  0
LINE
  5
3B
330
141
100
AcDbEntity
  8
HIDDEN
100
AcDbLine
 10
189.8
 20
1.499999999999988
 30
0.0
 11
188.3
 21
1.499999999999988
 31
0.0
  0
LINE
  5
3C
330
141
100
AcDbEntity
  8
HIDDEN
100
AcDbLine
 10
188.3
 20
-1.500000000000011
 30
0.0
 11
189.8
 21
-1.500000000000011
 31
0.0
  0
LINE
  5
3D
330
141
100
AcDbEntity
  8
HIDDEN
100
AcDbLine
 10
189.8
 20
8.499999999999987
 30
0.0
 11
188.3
 21
8.499999999999987
 31
0.0
  0
LINE
  5
3E
330
141
100
AcDbEntity
  8
HIDDEN
100
AcDbLine
 10
188.3
 20
-8.500000000000012
 30
0.0
 11
189.8
 21
-8.500000000000012
 31
0.0
  0
LINE
  5
3F
330
141
100
AcDbEntity
  8
VIS
100
AcDbLine
 10
189.8
 20
8.499999999999987
 30
0.0
 11
197.3
 21
8.499999999999987
 31
0.0
  0
LINE
  5
40
330
141
100
AcDbEntity
  8
VIS
100
AcDbLine
 10
197.3
 20
8.499999999999987
 30
0.0
 11
197.3
 21
6.999999999999985
 31
0.0
  0
LINE
  5
41
330
141
100
AcDbEntity
  8
HIDDEN
100
AcDbLine
 10
197.3
 20
6.999999999999985
 30
0.0
 11
197.3
 21
-7.000000000000016
 31
0.0
  0
LINE
  5
42
330
141
100
AcDbEntity
  8
VIS
100
AcDbLine
 10
197.3
 20
-7.000000000000016
 30
0.0
 11
197.3
 21
-8.500000000000012
 31
0.0
  0
LINE
  5
43
330
141
100
AcDbEntity
  8
VIS
100
AcDbLine
 10
189.8
 20
-8.500000000000012
 30
0.0
 11
197.3
 21
-8.500000000000012
 31
0.0
  0
LINE
  5
44
330
141
100
AcDbEntity
  8
VIS
100
AcDbLine
 10
190.3
 20
8.499999999999987
 30
0.0
 11
190.3
 21
-8.500000000000012
 31
0.0
  0
ARC
  5
45
330
141
100
AcDbEntity
  8
VIS
100
AcDbCircle
 10
190.3
 20
-10.30677304431244
 30
0.0
 40
0.5
100
AcDbArc
 50
180.0
 51
302.5355065717287
  0
ARC
  5
46
330
141
100
AcDbEntity
  8
VIS
100
AcDbCircle
 10
192.6664175056409
 20
-14.01622963376001
 30
0.0
 40
3.899999999999991
100
AcDbArc
 50
53.24786295241638
 51
122.5355065717291
  0
LINE
  5
47
330
141
100
AcDbEntity
  8
VIS
100
AcDbLine
 10
195.0
 20
-10.8914268012567
 30
0.0
 11
194.4406220516152
 21
-12.40000000000001
 31
0.0
  0
ARC
  5
48
330
141
100
AcDbEntity
  8
VIS
100
AcDbCircle
 10
192.6664175056409
 20
-14.01622963376008
 30
0.0
 40
2.400000000000015
100
AcDbArc
 50
42.33227263227806
 51
122.9959757926942
  0
ARC
  5
49
330
141
100
AcDbEntity
  8
VIS
100
AcDbCircle
 10
190.5425550022103
 20
-10.74526523980487
 30
0.0
 40
1.500000000000095
100
AcDbArc
 50
270.0
 51
302.995975792693
  0
LINE
  5
4A
330
141
100
AcDbEntity
  8
VIS
100
AcDbLine
 10
190.5425550022103
 20
-12.24526523980496
 30
0.0
 11
190.3
 21
-12.24526523980496
 31
0.0
  0
ARC
  5
4B
330
141
100
AcDbEntity
  8
VIS
100
AcDbCircle
 10
190.2999999999999
 20
-10.245265239805
 30
0.0
 40
1.999999999999971
100
AcDbArc
 50
180.0
 51
270.0
  0
ARC
  5
4C
330
141
100
AcDbEntity
  8
VIS
100
AcDbCircle
 10
190.2999999999999
 20
10.24526523980497
 30
0.0
 40
1.999999999999965
100
AcDbArc
 50
90.0
 51
180.0
  0
LINE
  5
4D
330
141
100
AcDbEntity
  8
VIS
100
AcDbLine
 10
190.3
 20
12.24526523980494
 30
0.0
 11
190.5425550022103
 21
12.24526523980494
 31
0.0
  0
ARC
  5
4E
330
141
100
AcDbEntity
  8
VIS
100
AcDbCircle
 10
190.5425550022103
 20
10.74526523980492
 30
0.0
 40
1.500000000000003
100
AcDbArc
 50
57.00401691821564
 51
90.0
  0
ARC
  5
4F
330
141
100
AcDbEntity
  8
VIS
100
AcDbCircle
 10
192.6664175056409
 20
14.01622963376001
 30
0.0
 40
2.400000000000009
100
AcDbArc
 50
237.0040287629887
 51
317.6677273677229
  0
LINE
  5
50
330
141
100
AcDbEntity
  8
VIS
100
AcDbLine
 10
194.4406220516152
 20
12.39999999999998
 30
0.0
 11
194.9999999999999
 21
10.89142680125668
 31
0.0
  0
ARC
  5
51
330
141
100
AcDbEntity
  8
VIS
100
AcDbCircle
 10
192.6664175056409
 20
14.01622963376001
 30
0.0
 40
3.899999999999996
100
AcDbArc
 50
237.4644934282707
 51
306.7521370475835
  0
ARC
  5
52
330
141
100
AcDbEntity
  8
VIS
100
AcDbCircle
 10
190.3
 20
10.30677304431241
 30
0.0
 40
0.4999999999999917
100
AcDbArc
 50
57.46449342827165
 51
180.0
  0
LINE
  5
53
330
141
100
AcDbEntity
  8
VIS
100
AcDbLine
 10
189.8
 20
10.3067730443124
 30
0.0
 11
189.8
 21
-10.30677304431244
 31
0.0
  0
LINE
  5
54
330
141
100
AcDbEntity
  8
VIS
100
AcDbLine
 10
188.3
 20
-10.24526523980496
 30
0.0
 11
188.3
 21
10.24526523980494
 31
0.0
  0
LINE
  5
55
330
141
100
AcDbEntity
  8
VIS
100
AcDbLine
 10
189.8
 20
-9.508996738781283
 30
0.0
 11
188.3
 21
-9.508996738781283
 31
0.0
  0
LINE
  5
56
330
141
100
AcDbEntity
  8
VIS
100
AcDbLine
 10
188.3
 20
-8.543070912492188
 30
0.0
 11
189.8
 21
-8.543070912492188
 31
0.0
  0
LINE
  5
57
330
141
100
AcDbEntity
  8
VIS
100
AcDbLine
 10
188.3
 20
-7.198598838310113
 30
0.0
 11
189.8
 21
-7.198598838310113
 31
0.0
  0
LINE
  5
58
330
141
100
AcDbEntity
  8
VIS
100
AcDbLine
 10
188.3
 20
-6.23267301202105
 30
0.0
 11
189.8
 21
-6.23267301202105
 31
0.0
  0
LINE
  5
59
330
141
100
AcDbEntity
  8
VIS
100
AcDbLine
 10
188.3
 20
6.232673012021027
 30
0.0
 11
189.8
 21
6.232673012021027
 31
0.0
  0
LINE
  5
5A
330
141
100
AcDbEntity
  8
VIS
100
AcDbLine
 10
188.3
 20
7.198598838310092
 30
0.0
 11
189.8
 21
7.198598838310092
 31
0.0
  0
LINE
  5
5B
330
141
100
AcDbEntity
  8
VIS
100
AcDbLine
 10
188.3
 20
8.543070912492169
 30
0.0
 11
189.8
 21
8.543070912492169
 31
0.0
  0
LINE
  5
5C
330
141
100
AcDbEntity
  8
VIS
100
AcDbLine
 10
189.8
 20
9.508996738781261
 30
0.0
 11
188.3
 21
9.508996738781261
 31
0.0
  0
LINE
  5
5D
330
141
100
AcDbEntity
  8
HIDDEN
100
AcDbLine
 10
189.8
 20
-0.8000000000000097
 30
0.0
 11
188.3
 21
-0.8000000000000097
 31
0.0
  0
LINE
  5
5E
330
141
100
AcDbEntity
  8
HIDDEN
100
AcDbLine
 10
189.8
 20
0.7999999999999847
 30
0.0
 11
188.3
 21
0.7999999999999847
 31
0.0
  0
LINE
  5
5F
330
141
100
AcDbEntity
  8
HIDDEN
100
AcDbLine
 10
189.8
 20
-2.600000000000037
 30
0.0
 11
188.3
 21
-2.600000000000037
 31
0.0
  0
LINE
  5
60
330
141
100
AcDbEntity
  8
HIDDEN
100
AcDbLine
 10
189.8
 20
2.599999999999989
 30
0.0
 11
188.3
 21
2.599999999999989
 31
0.0
  0
LINE
  5
61
330
141
100
AcDbEntity
  8
CENTER
100
AcDbLine
 10
203.1684326136636
 20
-0.0000000000000112
 30
0.0
 11
168.8315673863364
 21
-0.0000000000000112
 31
0.0
  0
LINE
  5
62
330
141
100
AcDbEntity
  8
HIDDEN
100
AcDbLine
 10
199.5
 20
-2.300000000000011
 30
0.0
 11
201.0
 21
-2.300000000000011
 31
0.0
  0
LINE
  5
63
330
141
100
AcDbEntity
  8
HIDDEN
100
AcDbLine
 10
201.0
 20
2.299999999999986
 30
0.0
 11
199.5
 21
2.299999999999986
 31
0.0
  0
LINE
  5
64
330
141
100
AcDbEntity
  8
HIDDEN
100
AcDbLine
 10
201.0
 20
3.199999999999988
 30
0.0
 11
199.5
 21
3.199999999999988
 31
0.0
  0
LINE
  5
65
330
141
100
AcDbEntity
  8
HIDDEN
100
AcDbLine
 10
199.5
 20
-3.200000000000013
 30
0.0
 11
201.0
 21
-3.200000000000013
 31
0.0
  0
LINE
  5
66
330
141
100
AcDbEntity
  8
VIS
100
AcDbLine
 10
201.0
 20
-11.00000000000001
 30
0.0
 11
201.0
 21
-20.9689754779166
 31
0.0
  0
ARC
  5
67
330
141
100
AcDbEntity
  8
VIS
100
AcDbCircle
 10
198.5000000000002
 20
-21.20016618999649
 30
0.0
 40
0.99999999999983
100
AcDbArc
 50
311.8854276602497
 51
0.0
  0
ARC
  5
68
330
141
100
AcDbEntity
  8
VIS
100
AcDbCircle
 10
195.49560546875
 20
-17.85000000000007
 30
0.0
 40
5.49999999999995
100
AcDbArc
 50
231.3611793467418
 51
311.8854276602551
  0
LINE
  5
69
330
141
100
AcDbEntity
  8
VIS
100
AcDbLine
 10
190.9433802646388
 20
-23.16763534769494
 30
0.0
 11
192.061356126771
 21
-22.14603671505688
 31
0.0
  0
ARC
  5
6A
330
141
100
AcDbEntity
  8
VIS
100
AcDbCircle
 10
195.49560546875
 20
-17.85000000000003
 30
0.0
 40
6.999999999999982
100
AcDbArc
 50
229.4344265730242
 51
308.7628696874327
  0
ARC
  5
6B
330
141
100
AcDbEntity
  8
VIS
100
AcDbCircle
 10
197.9999999999999
 20
-20.96897547791654
 30
0.0
 40
3.000000000000136
100
AcDbArc
 50
308.762869687434
 51
0.0
  0
ARC
  5
6C
330
141
100
AcDbEntity
  8
VIS
100
AcDbCircle
 10
198.5000000000002
 20
21.20016618999646
 30
0.0
 40
0.9999999999998296
100
AcDbArc
 50
0.0
 51
48.11457233975065
  0
ARC
  5
6D
330
141
100
AcDbEntity
  8
VIS
100
AcDbCircle
 10
195.49560546875
 20
17.85000000000003
 30
0.0
 40
5.499999999999952
100
AcDbArc
 50
48.11457233974494
 51
128.6388206532581
  0
LINE
  5
6E
330
141
100
AcDbEntity
  8
VIS
100
AcDbLine
 10
192.061356126771
 20
22.14603671505686
 30
0.0
 11
190.9433802646388
 21
23.16763534769493
 31
0.0
  0
ARC
  5
6F
330
141
100
AcDbEntity
  8
VIS
100
AcDbCircle
 10
195.49560546875
 20
17.85000000000001
 30
0.0
 40
6.999999999999981
100
AcDbArc
 50
51.23713031256726
 51
130.5655734269758
  0
ARC
  5
70
330
141
100
AcDbEntity
  8
VIS
100
AcDbCircle
 10
197.9999999999999
 20
20.96897547791652
 30
0.0
 40
3.000000000000141
100
AcDbArc
 50
0.0
 51
51.23713031256595
  0
LINE
  5
71
330
141
100
AcDbEntity
  8
VIS
100
AcDbLine
 10
199.5
 20
-21.20016618999642
 30
0.0
 11
199.5
 21
-7.000000000000007
 31
0.0
  0
LINE
  5
72
330
141
100
AcDbEntity
  8
VIS
100
AcDbLine
 10
199.5
 20
6.999999999999986
 30
0.0
 11
199.5
 21
21.2001661899964
 31
0.0
  0
LINE
  5
73
330
141
100
AcDbEntity
  8
VIS
100
AcDbLine
 10
201.0
 20
-11.00000000000001
 30
0.0
 11
199.5
 21
-11.00000000000001
 31
0.0
  0
LINE
  5
74
330
141
100
AcDbEntity
  8
VIS
100
AcDbLine
 10
199.5
 20
10.99999999999999
 30
0.0
 11
201.0
 21
10.99999999999999
 31
0.0
  0
LINE
  5
75
330
141
100
AcDbEntity
  8
HIDDEN
100
AcDbLine
 10
201.0
 20
-7.000000000000007
 30
0.0
 11
201.0
 21
-11.00000000000001
 31
0.0
  0
LINE
  5
76
330
141
100
AcDbEntity
  8
HIDDEN
100
AcDbLine
 10
199.5
 20
13.99999999999999
 30
0.0
 11
201.0
 21
13.99999999999999
 31
0.0
  0
LINE
  5
77
330
141
100
AcDbEntity
  8
HIDDEN
100
AcDbLine
 10
199.5
 20
18.99999999999999
 30
0.0
 11
201.0
 21
18.99999999999999
 31
0.0
  0
LINE
  5
78
330
141
100
AcDbEntity
  8
HIDDEN
100
AcDbLine
 10
199.5
 20
-19.00000000000001
 30
0.0
 11
201.0
 21
-19.00000000000001
 31
0.0
  0
LINE
  5
79
330
141
100
AcDbEntity
  8
HIDDEN
100
AcDbLine
 10
199.5
 20
-14.00000000000001
 30
0.0
 11
201.0
 21
-14.00000000000001
 31
0.0
  0
LINE
  5
7A
330
141
100
AcDbEntity
  8
VIS
100
AcDbLine
 10
195.5273479649104
 20
-19.00000000000001
 30
0.0
 11
199.5
 21
-19.00000000000001
 31
0.0
  0
ARC
  5
7B
330
141
100
AcDbEntity
  8
VIS
100
AcDbCircle
 10
195.5273479649104
 20
-21.99999999999993
 30
0.0
 40
2.999999999999904
100
AcDbArc
 50
90.0
 51
136.8476102659934
  0
LINE
  5
7C
330
141
100
AcDbEntity
  8
VIS
100
AcDbLine
 10
192.6913366172941
 20
-20.63873633089834
 30
0.0
 11
193.3387363524902
 21
-19.94817661335594
 31
0.0
  0
LINE
  5
7D
330
141
100
AcDbEntity
  8
VIS
100
AcDbLine
 10
194.1504110255743
 20
-22.00661858866106
 30
0.0
 11
192.6913366172941
 21
-20.63873633089834
 31
0.0
  0
LINE
  5
7E
330
141
100
AcDbEntity
  8
VIS
100
AcDbLine
 10
194.7978107607704
 20
-21.31605887111866
 30
0.0
 11
194.1504110255743
 21
-22.00661858866106
 31
0.0
  0
ARC
  5
7F
330
141
100
AcDbEntity
  8
VIS
100
AcDbCircle
 10
195.5273479649104
 20
-22.00000000000006
 30
0.0
 40
1.000000000000053
100
AcDbArc
 50
90.0
 51
136.8476102659916
  0
LINE
  5
80
330
141
100
AcDbEntity
  8
VIS
100
AcDbLine
 10
199.5
 20
-21.00000000000001
 30
0.0
 11
195.5273479649104
 21
-21.00000000000001
 31
0.0
  0
LINE
  5
81
330
141
100
AcDbEntity
  8
VIS
100
AcDbLine
 10
199.5
 20
18.99999999999999
 30
0.0
 11
195.5273479649104
 21
18.99999999999999
 31
0.0
  0
LINE
  5
82
330
141
100
AcDbEntity
  8
VIS
100
AcDbLine
 10
195.5273479649104
 20
20.99999999999999
 30
0.0
 11
199.5
 21
20.99999999999999
 31
0.0
  0
ARC
  5
83
330
141
100
AcDbEntity
  8
VIS
100
AcDbCircle
 10
195.5273479649104
 20
22.00000000000005
 30
0.0
 40
1.000000000000051
100
AcDbArc
 50
223.1523897340085
 51
270.0
  0
LINE
  5
84
330
141
100
AcDbEntity
  8
VIS
100
AcDbLine
 10
194.1504110255743
 20
22.00661858866105
 30
0.0
 11
194.7978107607703
 21
21.31605887111865
 31
0.0
  0
LINE
  5
85
330
141
100
AcDbEntity
  8
VIS
100
AcDbLine
 10
192.6913366172941
 20
20.63873633089832
 30
0.0
 11
194.1504110255743
 21
22.00661858866105
 31
0.0
  0
LINE
  5
86
330
141
100
AcDbEntity
  8
VIS
100
AcDbLine
 10
193.3387363524902
 20
19.94817661335593
 30
0.0
 11
192.6913366172941
 21
20.63873633089832
 31
0.0
  0
ARC
  5
87
330
141
100
AcDbEntity
  8
VIS
100
AcDbCircle
 10
195.5273479649104
 20
21.9999999999999
 30
0.0
 40
2.999999999999909
100
AcDbArc
 50
223.1523897340066
 51
270.0
  0
LINE
  5
88
330
141
100
AcDbEntity
  8
HIDDEN
100
AcDbLine
 10
199.5
 20
-7.000000000000007
 30
0.0
 11
199.5
 21
6.999999999999986
 31
0.0
  0
LINE
  5
89
330
141
100
AcDbEntity
  8
VIS
100
AcDbLine
 10
201.0
 20
20.96897547791658
 30
0.0
 11
201.0
 21
-7.000000000000016
 31
0.0
  0
LINE
  5
8A
330
141
100
AcDbEntity
  8
VIS
100
AcDbLine
 10
196.7
 20
6.999999999999985
 30
0.0
 11
201.0
 21
6.999999999999983
 31
0.0
  0
ARC
  5
8B
330
141
100
AcDbEntity
  8
VIS
100
AcDbCircle
 10
195.1132882882883
 20
4.801666666666652
 30
0.0
 40
2.711148004172313
100
AcDbArc
 50
54.17902499232319
 51
141.2130784517105
  0
LINE
  5
8C
330
141
100
AcDbEntity
  8
VIS
100
AcDbLine
 10
193.0
 20
-7.000000000000018
 30
0.0
 11
193.0
 21
6.49999999999996
 31
0.0
  0
ARC
  5
8D
330
141
100
AcDbEntity
  8
VIS
100
AcDbCircle
 10
194.85
 20
-3.827500000000089
 30
0.0
 40
3.672499999999936
100
AcDbArc
 50
239.7519853833784
 51
300.2480146166217
  0
LINE
  5
8E
330
141
100
AcDbEntity
  8
VIS
100
AcDbLine
 10
201.0
 20
-7.000000000000016
 30
0.0
 11
196.7
 21
-7.000000000000017
 31
0.0
  0
LINE
  5
8F
330
141
100
AcDbEntity
  8
HIDDEN
100
AcDbLine
 10
201.0
 20
2.199999999999988
 30
0.0
 11
199.5
 21
2.199999999999988
 31
0.0
  0
LINE
  5
90
330
141
100
AcDbEntity
  8
HIDDEN
100
AcDbLine
 10
201.0
 20
-2.200000000000013
 30
0.0
 11
199.5
 21
-2.200000000000013
 31
0.0
  0
LINE
  5
91
330
141
100
AcDbEntity
  8
CENTER
100
AcDbLine
 10
208.1684326136636
 20
0.0000000000000014
 30
0.0
 11
193.8315673863364
 21
0.0000000000000014
 31
0.0
  0
LINE
  5
92
330
141
100
AcDbEntity
  8
HIDDEN
100
AcDbLine
 10
12.70000000000005
 20
3.0
 30
0.0
 11
11.20000000000005
 21
3.0
 31
0.0
  0
LINE
  5
93
330
141
100
AcDbEntity
  8
HIDDEN
100
AcDbLine
 10
11.20000000000005
 20
-3.0
 30
0.0
 11
12.70000000000005
 21
-3.0
 31
0.0
  0
LINE
  5
94
330
141
100
AcDbEntity
  8
HIDDEN
100
AcDbLine
 10
12.70000000000005
 20
4.800000000000001
 30
0.0
 11
11.20000000000005
 21
4.800000000000001
 31
0.0
  0
LINE
  5
95
330
141
100
AcDbEntity
  8
HIDDEN
100
AcDbLine
 10
11.20000000000005
 20
-4.800000000000001
 30
0.0
 11
12.70000000000005
 21
-4.800000000000001
 31
0.0
  0
LINE
  5
96
330
141
100
AcDbEntity
  8
HIDDEN
100
AcDbLine
 10
11.20000000000005
 20
-2.2
 30
0.0
 11
12.70000000000005
 21
-2.2
 31
0.0
  0
LINE
  5
97
330
141
100
AcDbEntity
  8
HIDDEN
100
AcDbLine
 10
12.70000000000005
 20
2.2
 30
0.0
 11
11.20000000000005
 21
2.2
 31
0.0
  0
LINE
  5
98
330
141
100
AcDbEntity
  8
HIDDEN
100
AcDbLine
 10
11.20000000000005
 20
-1.5
 30
0.0
 11
12.70000000000005
 21
-1.5
 31
0.0
  0
LINE
  5
99
330
141
100
AcDbEntity
  8
HIDDEN
100
AcDbLine
 10
12.70000000000005
 20
1.5
 30
0.0
 11
11.20000000000005
 21
1.5
 31
0.0
  0
LINE
  5
9A
330
141
100
AcDbEntity
  8
HIDDEN
100
AcDbLine
 10
11.20000000000001
 20
-8.5
 30
0.0
 11
12.7
 21
-8.5
 31
0.0
  0
LINE
  5
9B
330
141
100
AcDbEntity
  8
HIDDEN
100
AcDbLine
 10
12.7
 20
8.5
 30
0.0
 11
11.20000000000001
 21
8.5
 31
0.0
  0
LINE
  5
9C
330
141
100
AcDbEntity
  8
VIS
100
AcDbLine
 10
11.20000000000001
 20
-8.5
 30
0.0
 11
3.699999999999998
 21
-8.5
 31
0.0
  0
LINE
  5
9D
330
141
100
AcDbEntity
  8
VIS
100
AcDbLine
 10
3.699999999999998
 20
-8.5
 30
0.0
 11
3.699999999999998
 21
-6.999999999999997
 31
0.0
  0
LINE
  5
9E
330
141
100
AcDbEntity
  8
HIDDEN
100
AcDbLine
 10
3.699999999999998
 20
-6.999999999999997
 30
0.0
 11
3.699999999999998
 21
7.000000000000003
 31
0.0
  0
LINE
  5
9F
330
141
100
AcDbEntity
  8
VIS
100
AcDbLine
 10
3.699999999999998
 20
7.000000000000003
 30
0.0
 11
3.699999999999998
 21
8.5
 31
0.0
  0
LINE
  5
A0
330
141
100
AcDbEntity
  8
VIS
100
AcDbLine
 10
11.20000000000001
 20
8.5
 30
0.0
 11
3.699999999999998
 21
8.5
 31
0.0
  0
LINE
  5
A1
330
141
100
AcDbEntity
  8
VIS
100
AcDbLine
 10
10.70000000000001
 20
-8.5
 30
0.0
 11
10.70000000000001
 21
8.5
 31
0.0
  0
ARC
  5
A2
330
141
100
AcDbEntity
  8
VIS
100
AcDbCircle
 10
10.70000000000004
 20
10.30677304431242
 30
0.0
 40
0.5
100
AcDbArc
 50
0.0
 51
122.5355065717293
  0
ARC
  5
A3
330
141
100
AcDbEntity
  8
VIS
100
AcDbCircle
 10
8.33358249435912
 20
14.01622963376001
 30
0.0
 40
3.9
100
AcDbArc
 50
233.2478629524168
 51
302.5355065717295
  0
LINE
  5
A4
330
141
100
AcDbEntity
  8
VIS
100
AcDbLine
 10
6.000000000000045
 20
10.89142680125669
 30
0.0
 11
6.559377948384802
 21
12.4
 31
0.0
  0
ARC
  5
A5
330
141
100
AcDbEntity
  8
VIS
100
AcDbCircle
 10
8.333582494359122
 20
14.01622963376001
 30
0.0
 40
2.400000000000003
100
AcDbArc
 50
222.332272632277
 51
302.995975792694
  0
ARC
  5
A6
330
141
100
AcDbEntity
  8
VIS
100
AcDbCircle
 10
10.45744499778964
 20
10.74526523980498
 30
0.0
 40
1.499999999999974
100
AcDbArc
 50
90.0
 51
122.9959757926943
  0
LINE
  5
A7
330
141
100
AcDbEntity
  8
VIS
100
AcDbLine
 10
10.45744499778964
 20
12.24526523980495
 30
0.0
 11
10.70000000000005
 21
12.24526523980495
 31
0.0
  0
ARC
  5
A8
330
141
100
AcDbEntity
  8
VIS
100
AcDbCircle
 10
10.70000000000005
 20
10.24526523980495
 30
0.0
 40
1.999999999999995
100
AcDbArc
 50
0.0
 51
90.0
  0
ARC
  5
A9
330
141
100
AcDbEntity
  8
VIS
100
AcDbCircle
 10
10.70000000000005
 20
-10.24526523980495
 30
0.0
 40
1.999999999999995
100
AcDbArc
 50
270.0
 51
0.0
  0
LINE
  5
AA
330
141
100
AcDbEntity
  8
VIS
100
AcDbLine
 10
10.70000000000005
 20
-12.24526523980495
 30
0.0
 11
10.45744499778962
 21
-12.24526523980495
 31
0.0
  0
ARC
  5
AB
330
141
100
AcDbEntity
  8
VIS
100
AcDbCircle
 10
10.45744499778963
 20
-10.74526523980493
 30
0.0
 40
1.500000000000019
100
AcDbArc
 50
237.004016918215
 51
270.0
  0
ARC
  5
AC
330
141
100
AcDbEntity
  8
VIS
100
AcDbCircle
 10
8.333582494359133
 20
-14.01622963376003
 30
0.0
 40
2.400000000000007
100
AcDbArc
 50
57.0040287629888
 51
137.6677273677227
  0
LINE
  5
AD
330
141
100
AcDbEntity
  8
VIS
100
AcDbLine
 10
6.559377948384818
 20
-12.39999999999999
 30
0.0
 11
6.000000000000056
 21
-10.89142680125669
 31
0.0
  0
ARC
  5
AE
330
141
100
AcDbEntity
  8
VIS
100
AcDbCircle
 10
8.333582494359138
 20
-14.01622963376001
 30
0.0
 40
3.899999999999995
100
AcDbArc
 50
57.46449342827073
 51
126.7521370475834
  0
ARC
  5
AF
330
141
100
AcDbEntity
  8
VIS
100
AcDbCircle
 10
10.70000000000005
 20
-10.30677304431242
 30
0.0
 40
0.4999999999999993
100
AcDbArc
 50
237.464493428271
 51
0.0
  0
LINE
  5
B0
330
141
100
AcDbEntity
  8
VIS
100
AcDbLine
 10
11.20000000000005
 20
-10.30677304431241
 30
0.0
 11
11.20000000000005
 21
10.30677304431242
 31
0.0
  0
LINE
  5
B1
330
141
100
AcDbEntity
  8
VIS
100
AcDbLine
 10
12.70000000000005
 20
10.24526523980495
 30
0.0
 11
12.70000000000005
 21
-10.24526523980495
 31
0.0
  0
LINE
  5
B2
330
141
100
AcDbEntity
  8
VIS
100
AcDbLine
 10
11.20000000000005
 20
9.508996738781274
 30
0.0
 11
12.70000000000005
 21
9.508996738781274
 31
0.0
  0
LINE
  5
B3
330
141
100
AcDbEntity
  8
VIS
100
AcDbLine
 10
12.70000000000005
 20
8.543070912492176
 30
0.0
 11
11.20000000000005
 21
8.543070912492176
 31
0.0
  0
LINE
  5
B4
330
141
100
AcDbEntity
  8
VIS
100
AcDbLine
 10
12.70000000000005
 20
7.198598838310101
 30
0.0
 11
11.20000000000005
 21
7.198598838310101
 31
0.0
  0
LINE
  5
B5
330
141
100
AcDbEntity
  8
VIS
100
AcDbLine
 10
12.70000000000005
 20
6.232673012021038
 30
0.0
 11
11.20000000000005
 21
6.232673012021038
 31
0.0
  0
LINE
  5
B6
330
141
100
AcDbEntity
  8
VIS
100
AcDbLine
 10
12.70000000000005
 20
-6.232673012021039
 30
0.0
 11
11.20000000000005
 21
-6.232673012021039
 31
0.0
  0
LINE
  5
B7
330
141
100
AcDbEntity
  8
VIS
100
AcDbLine
 10
12.70000000000005
 20
-7.198598838310105
 30
0.0
 11
11.20000000000005
 21
-7.198598838310105
 31
0.0
  0
LINE
  5
B8
330
141
100
AcDbEntity
  8
VIS
100
AcDbLine
 10
12.70000000000005
 20
-8.543070912492181
 30
0.0
 11
11.20000000000005
 21
-8.543070912492181
 31
0.0
  0
LINE
  5
B9
330
141
100
AcDbEntity
  8
VIS
100
AcDbLine
 10
11.20000000000005
 20
-9.508996738781274
 30
0.0
 11
12.70000000000005
 21
-9.508996738781274
 31
0.0
  0
LINE
  5
BA
330
141
100
AcDbEntity
  8
HIDDEN
100
AcDbLine
 10
11.20000000000005
 20
0.7999999999999974
 30
0.0
 11
12.70000000000005
 21
0.7999999999999974
 31
0.0
  0
LINE
  5
BB
330
141
100
AcDbEntity
  8
HIDDEN
100
AcDbLine
 10
11.20000000000005
 20
-0.799999999999997
 30
0.0
 11
12.70000000000005
 21
-0.799999999999997
 31
0.0
  0
LINE
  5
BC
330
141
100
AcDbEntity
  8
HIDDEN
100
AcDbLine
 10
11.20000000000005
 20
2.600000000000023
 30
0.0
 11
12.70000000000005
 21
2.600000000000023
 31
0.0
  0
LINE
  5
BD
330
141
100
AcDbEntity
  8
HIDDEN
100
AcDbLine
 10
11.20000000000005
 20
-2.6
 30
0.0
 11
12.70000000000005
 21
-2.6
 31
0.0
  0
LINE
  5
BE
330
141
100
AcDbEntity
  8
CENTER
100
AcDbLine
 10
-2.16843261366361
 20
0.0000000000000011
 30
0.0
 11
32.16843261366361
 21
0.0000000000000011
 31
0.0
  0
LINE
  5
BF
330
141
100
AcDbEntity
  8
HIDDEN
100
AcDbLine
 10
1.5
 20
2.299999999999999
 30
0.0
 11
0.0
 21
2.299999999999999
 31
0.0
  0
LINE
  5
C0
330
141
100
AcDbEntity
  8
HIDDEN
100
AcDbLine
 10
0.0
 20
-2.299999999999999
 30
0.0
 11
1.5
 21
-2.299999999999999
 31
0.0
  0
LINE
  5
C1
330
141
100
AcDbEntity
  8
HIDDEN
100
AcDbLine
 10
0.0
 20
-3.2
 30
0.0
 11
1.5
 21
-3.2
 31
0.0
  0
LINE
  5
C2
330
141
100
AcDbEntity
  8
HIDDEN
100
AcDbLine
 10
1.5
 20
3.2
 30
0.0
 11
0.0
 21
3.2
 31
0.0
  0
LINE
  5
C3
330
141
100
AcDbEntity
  8
VIS
100
AcDbLine
 10
0.0
 20
11.0
 30
0.0
 11
0.0
 21
20.96897547791659
 31
0.0
  0
ARC
  5
C4
330
141
100
AcDbEntity
  8
VIS
100
AcDbCircle
 10
2.499999999999995
 20
21.20016618999641
 30
0.0
 40
0.9999999999999968
100
AcDbArc
 50
131.8854276602545
 51
180.0
  0
ARC
  5
C5
330
141
100
AcDbEntity
  8
VIS
100
AcDbCircle
 10
5.504394531249992
 20
17.85000000000001
 30
0.0
 40
5.499999999999983
100
AcDbArc
 50
51.36117934674214
 51
131.8854276602548
  0
LINE
  5
C6
330
141
100
AcDbEntity
  8
VIS
100
AcDbLine
 10
10.05661973536121
 20
23.16763534769493
 30
0.0
 11
8.938643873229004
 21
22.14603671505687
 31
0.0
  0
ARC
  5
C7
330
141
100
AcDbEntity
  8
VIS
100
AcDbCircle
 10
5.504394531249988
 20
17.84999999999999
 30
0.0
 40
7.000000000000013
100
AcDbArc
 50
49.43442657302423
 51
128.7628696874326
  0
ARC
  5
C8
330
141
100
AcDbEntity
  8
VIS
100
AcDbCircle
 10
3.000000000000021
 20
20.96897547791659
 30
0.0
 40
3.00000000000002
100
AcDbArc
 50
128.7628696874329
 51
180.0
  0
ARC
  5
C9
330
141
100
AcDbEntity
  8
VIS
100
AcDbCircle
 10
2.500000000000015
 20
-21.2001661899964
 30
0.0
 40
1.000000000000017
100
AcDbArc
 50
180.0
 51
228.1145723397451
  0
ARC
  5
CA
330
141
100
AcDbEntity
  8
VIS
100
AcDbCircle
 10
5.50439453125
 20
-17.84999999999999
 30
0.0
 40
5.5
100
AcDbArc
 50
228.1145723397453
 51
308.6388206532578
  0
LINE
  5
CB
330
141
100
AcDbEntity
  8
VIS
100
AcDbLine
 10
8.938643873229018
 20
-22.14603671505687
 30
0.0
 11
10.05661973536121
 21
-23.16763534769494
 31
0.0
  0
ARC
  5
CC
330
141
100
AcDbEntity
  8
VIS
100
AcDbCircle
 10
5.504394531250003
 20
-17.85
 30
0.0
 40
7.0
100
AcDbArc
 50
231.2371303125673
 51
310.5655734269757
  0
ARC
  5
CD
330
141
100
AcDbEntity
  8
VIS
100
AcDbCircle
 10
3.000000000000008
 20
-20.96897547791659
 30
0.0
 40
3.000000000000008
100
AcDbArc
 50
179.9999991462264
 51
231.2371303125672
  0
LINE
  5
CE
330
141
100
AcDbEntity
  8
VIS
100
AcDbLine
 10
1.5
 20
21.20016618999641
 30
0.0
 11
1.5
 21
6.999999999999995
 31
0.0
  0
LINE
  5
CF
330
141
100
AcDbEntity
  8
VIS
100
AcDbLine
 10
1.5
 20
-7.0
 30
0.0
 11
1.5
 21
-21.20016618999641
 31
0.0
  0
LINE
  5
D0
330
141
100
AcDbEntity
  8
VIS
100
AcDbLine
 10
0.0
 20
11.0
 30
0.0
 11
1.5
 21
11.0
 31
0.0
  0
LINE
  5
D1
330
141
100
AcDbEntity
  8
VIS
100
AcDbLine
 10
1.5
 20
-11.0
 30
0.0
 11
0.0
 21
-11.0
 31
0.0
  0
LINE
  5
D2
330
141
100
AcDbEntity
  8
HIDDEN
100
AcDbLine
 10
0.0
 20
6.999999999999995
 30
0.0
 11
0.0
 21
11.0
 31
0.0
  0
LINE
  5
D3
330
141
100
AcDbEntity
  8
HIDDEN
100
AcDbLine
 10
1.5
 20
-14.0
 30
0.0
 11
0.0
 21
-14.0
 31
0.0
  0
LINE
  5
D4
330
141
100
AcDbEntity
  8
HIDDEN
100
AcDbLine
 10
1.5
 20
-19.0
 30
0.0
 11
0.0
 21
-19.0
 31
0.0
  0
LINE
  5
D5
330
141
100
AcDbEntity
  8
HIDDEN
100
AcDbLine
 10
1.5
 20
19.0
 30
0.0
 11
0.0
 21
19.0
 31
0.0
  0
LINE
  5
D6
330
141
100
AcDbEntity
  8
HIDDEN
100
AcDbLine
 10
1.5
 20
14.0
 30
0.0
 11
0.0
 21
14.0
 31
0.0
  0
LINE
  5
D7
330
141
100
AcDbEntity
  8
VIS
100
AcDbLine
 10
5.472652035089592
 20
19.0
 30
0.0
 11
1.5
 21
19.0
 31
0.0
  0
ARC
  5
D8
330
141
100
AcDbEntity
  8
VIS
100
AcDbCircle
 10
5.472652035089594
 20
22.0
 30
0.0
 40
2.999999999999996
100
AcDbArc
 50
270.0
 51
316.8476102659924
  0
LINE
  5
D9
330
141
100
AcDbEntity
  8
VIS
100
AcDbLine
 10
8.30866338270582
 20
20.63873633089833
 30
0.0
 11
7.661263647509768
 21
19.94817661335593
 31
0.0
  0
LINE
  5
DA
330
141
100
AcDbEntity
  8
VIS
100
AcDbLine
 10
6.849588974425696
 20
22.00661858866105
 30
0.0
 11
8.30866338270582
 21
20.63873633089833
 31
0.0
  0
LINE
  5
DB
330
141
100
AcDbEntity
  8
VIS
100
AcDbLine
 10
6.202189239229659
 20
21.31605887111865
 30
0.0
 11
6.849588974425696
 21
22.00661858866105
 31
0.0
  0
ARC
  5
DC
330
141
100
AcDbEntity
  8
VIS
100
AcDbCircle
 10
5.472652035089585
 20
22.00000000000002
 30
0.0
 40
1.000000000000017
100
AcDbArc
 50
270.0
 51
316.8476102659925
  0
LINE
  5
DD
330
141
100
AcDbEntity
  8
VIS
100
AcDbLine
 10
1.5
 20
21.0
 30
0.0
 11
5.472652035089594
 21
21.0
 31
0.0
  0
LINE
  5
DE
330
141
100
AcDbEntity
  8
VIS
100
AcDbLine
 10
1.5
 20
-19.0
 30
0.0
 11
5.472652035089598
 21
-19.0
 31
0.0
  0
LINE
  5
DF
330
141
100
AcDbEntity
  8
VIS
100
AcDbLine
 10
5.472652035089596
 20
-21.0
 30
0.0
 11
1.5
 21
-21.0
 31
0.0
  0
ARC
  5
E0
330
141
100
AcDbEntity
  8
VIS
100
AcDbCircle
 10
5.472652035089581
 20
-22.00000000000009
 30
0.0
 40
1.000000000000085
100
AcDbArc
 50
43.15238973400864
 51
90.0
  0
LINE
  5
E1
330
141
100
AcDbEntity
  8
VIS
100
AcDbLine
 10
6.849588974425696
 20
-22.00661858866106
 30
0.0
 11
6.202189239229687
 21
-21.31605887111866
 31
0.0
  0
LINE
  5
E2
330
141
100
AcDbEntity
  8
VIS
100
AcDbLine
 10
8.308663382705809
 20
-20.63873633089833
 30
0.0
 11
6.849588974425696
 21
-22.00661858866106
 31
0.0
  0
LINE
  5
E3
330
141
100
AcDbEntity
  8
VIS
100
AcDbLine
 10
7.661263647509768
 20
-19.94817661335594
 30
0.0
 11
8.308663382705809
 21
-20.63873633089833
 31
0.0
  0
ARC
  5
E4
330
141
100
AcDbEntity
  8
VIS
100
AcDbCircle
 10
5.472652035089637
 20
-21.99999999999987
 30
0.0
 40
2.999999999999868
100
AcDbArc
 50
43.15238973400626
 51
90.0
  0
LINE
  5
E5
330
141
100
AcDbEntity
  8
HIDDEN
100
AcDbLine
 10
1.5
 20
6.999999999999995
 30
0.0
 11
1.5
 21
-7.0
 31
0.0
  0
LINE
  5
E6
330
141
100
AcDbEntity
  8
VIS
100
AcDbLine
 10
0.0
 20
-20.96897547791659
 30
0.0
 11
0.0
 21
7.000000000000003
 31
0.0
  0
LINE
  5
E7
330
141
100
AcDbEntity
  8
VIS
100
AcDbLine
 10
4.300000000000011
 20
-6.999999999999997
 30
0.0
 11
0.0
 21
-6.999999999999996
 31
0.0
  0
ARC
  5
E8
330
141
100
AcDbEntity
  8
VIS
100
AcDbCircle
 10
5.88671171171171
 20
-4.801666666666712
 30
0.0
 40
2.711148004172273
100
AcDbArc
 50
234.1790249923226
 51
321.2130784517113
  0
LINE
  5
E9
330
141
100
AcDbEntity
  8
VIS
100
AcDbLine
 10
8.0
 20
7.000000000000006
 30
0.0
 11
8.0
 21
-6.499999999999972
 31
0.0
  0
ARC
  5
EA
330
141
100
AcDbEntity
  8
VIS
100
AcDbCircle
 10
6.150000000000009
 20
3.827500000000038
 30
0.0
 40
3.672499999999966
100
AcDbArc
 50
59.75198538337875
 51
120.2480146166214
  0
LINE
  5
EB
330
141
100
AcDbEntity
  8
VIS
100
AcDbLine
 10
0.0
 20
7.000000000000003
 30
0.0
 11
4.300000000000013
 21
7.000000000000003
 31
0.0
  0
LINE
  5
EC
330
141
100
AcDbEntity
  8
HIDDEN
100
AcDbLine
 10
0.0
 20
-2.2
 30
0.0
 11
1.5
 21
-2.2
 31
0.0
  0
LINE
  5
ED
330
141
100
AcDbEntity
  8
HIDDEN
100
AcDbLine
 10
0.0
 20
2.2
 30
0.0
 11
1.5
 21
2.2
 31
0.0
  0
LINE
  5
EE
330
141
100
AcDbEntity
  8
CENTER
100
AcDbLine
 10
-7.168432613663609
 20
0.0000000000000137
 30
0.0
 11
7.168432613663609
 21
0.0000000000000137
 31
0.0
  0
POINT
  5
EF
330
141
100
AcDbEntity
  8
VIS
100
AcDbPoint
 10
0.0
 20
-0.0000000000000005
 30
-8.0
  0
POINT
  5
F0
330
141
100
AcDbEntity
  8
VIS
100
AcDbPoint
 10
100.5
 20
-0.0000000000000005
 30
-8.0
  0
POINT
  5
F1
330
141
100
AcDbEntity
  8
VIS
100
AcDbPoint
 10
0.0
 20
-0.0000000000000005
 30
-8.0
  0
POINT
  5
F2
330
141
100
AcDbEntity
  8
VIS
100
AcDbPoint
 10
201.0
 20
-0.0000000000000128
 30
-8.0
  0
POINT
  5
F3
330
141
100
AcDbEntity
  8
VIS
100
AcDbPoint
 10
100.5
 20
-0.0000000000000128
 30
-8.0
  0
POINT
  5
F4
330
141
100
AcDbEntity
  8
VIS
100
AcDbPoint
 10
201.0
 20
-0.0000000000000128
 30
-8.0
  0
ATTDEF
  5
FC
330
141
100
AcDbEntity
  8
0
100
AcDbText
 10
0.0
 20
0.0
 30
0.0
 40
1.0
  1
250
100
AcDbAttributeDefinition
  3

  2
L
 70
     9
  0
ENDSEC
  0
SECTION
  2
OBJECTS
  0
DICTIONARY
  5
117
330
0
100
AcDbDictionary
281
     1
  3
ACAD_COLOR
350
13A
  3
ACAD_GROUP
350
118
  3
ACAD_LAYOUT
350
139
  3
ACAD_MATERIAL
350
11B
  3
ACAD_MLINESTYLE
350
136
  3
ACAD_PLOTSETTINGS
350
138
  3
ACAD_PLOTSTYLENAME
350
119
  3
ACAD_TABLESTYLE
350
13B
  3
ACAD_VISUALSTYLE
350
11F
  3
AcDbVariableDictionary
350
15A
  3
DWGPROPS
350
15F
  0
DICTIONARY
  5
13A
102
{ACAD_REACTORS
330
117
102
}
330
117
100
AcDbDictionary
281
     1
  0
DICTIONARY
  5
118
102
{ACAD_REACTORS
330
117
102
}
330
117
100
AcDbDictionary
281
     1
  0
DICTIONARY
  5
139
102
{ACAD_REACTORS
330
117
102
}
330
117
100
AcDbDictionary
281
     1
  3
Layout1
350
140
  3
Model
350
144
  0
DICTIONARY
  5
11B
102
{ACAD_REACTORS
330
117
102
}
330
117
100
AcDbDictionary
281
     1
  3
ByBlock
350
11D
  3
ByLayer
350
11C
  3
Global
350
11E
  0
DICTIONARY
  5
136
102
{ACAD_REACTORS
330
117
102
}
330
117
100
AcDbDictionary
281
     1
  3
Standard
350
137
  0
DICTIONARY
  5
138
102
{ACAD_REACTORS
330
117
102
}
330
117
100
AcDbDictionary
281
     1
  0
ACDBDICTIONARYWDFLT
  5
119
102
{ACAD_REACTORS
330
117
102
}
330
117
100
AcDbDictionary
281
     1
  3
Normal
350
11A
100
AcDbDictionaryWithDefault
340
11A
  0
DICTIONARY
  5
13B
102
{ACAD_REACTORS
330
117
102
}
330
117
100
AcDbDictionary
281
     1
  3
Standard
350
13C
  0
DICTIONARY
  5
11F
102
{ACAD_REACTORS
330
117
102
}
330
117
100
AcDbDictionary
281
     1
  3
2dWireframe
350
125
  3
3D Hidden
350
127
  3
3dWireframe
350
126
  3
Basic
350
124
  3
Brighten
350
12B
  3
ColorChange
350
12F
  3
Conceptual
350
128
  3
Dim
350
12A
  3
Facepattern
350
12E
  3
Flat
350
120
  3
FlatWithEdges
350
121
  3
Gouraud
350
122
  3
GouraudWithEdges
350
123
  3
Linepattern
350
12D
  3
Realistic
350
129
  3
Thicken
350
12C
  0
DICTIONARY
  5
15A
102
{ACAD_REACTORS
330
117
102
}
330
117
100
AcDbDictionary
281
     1
  3
CTABLESTYLE
350
15B
  3
DIMASSOC
350
15E
  3
INDEXCTL
350
15D
  3
SORTENTS
350
15C
  0
XRECORD
  5
15F
102
{ACAD_REACTORS
330
117
102
}
330
117
100
AcDbXrecord
280
     1
  1
DWGPROPS COOKIE
  2

  3

  4

  6

  7

  8
Admin
  9

300
=
301
=
302
=
303
=
304
=
305
=
306
=
307
=
308
=
309
=
 40
0.0021457407407407
 41
2454456.618506945
 42
2454456.632792604
  1

 90
        0
  0
LAYOUT
  5
140
102
{ACAD_XDICTIONARY
360
168
102
}
102
{ACAD_REACTORS
330
139
102
}
330
139
100
AcDbPlotSettings
  1

  2
HP LaserJet 5000 Series PCL6
  4

  6

 40
0.0
 41
0.0
 42
0.0
 43
0.0
 44
0.0
 45
0.0
 46
0.0
 47
0.0
 48
0.0
 49
0.0
140
0.0
141
0.0
142
1.0
143
1.0
 70
   688
 72
     0
 73
     0
 74
     5
  7

 75
    16
147
1.0
148
0.0
149
0.0
100
AcDbLayout
  1
Layout1
 70
     1
 71
     1
 10
0.0
 20
0.0
 11
100.0
 21
100.0
 12
0.0
 22
0.0
 32
0.0
 14
0.0
 24
0.0
 34
0.0
 15
1000.0
 25
1000.0
 35
0.0
146
0.0
 13
0.0
 23
0.0
 33
0.0
 16
1.0
 26
0.0
 36
0.0
 17
0.0
 27
1.0
 37
0.0
 76
     0
330
13D
  0
LAYOUT
  5
144
102
{ACAD_XDICTIONARY
360
16A
102
}
102
{ACAD_REACTORS
330
139
102
}
330
139
100
AcDbPlotSettings
  1

  2
HP LaserJet 5000 Series PCL6
  4

  6

 40
0.0
 41
0.0
 42
0.0
 43
0.0
 44
0.0
 45
0.0
 46
0.0
 47
0.0
 48
0.0
 49
0.0
140
0.0
141
0.0
142
1.0
143
1.0
 70
  1712
 72
     0
 73
     0
 74
     0
  7

 75
     0
147
1.0
148
0.0
149
0.0
100
AcDbLayout
  1
Model
 70
     1
 71
     0
 10
0.0
 20
0.0
 11
12.0
 21
9.0
 12
0.0
 22
0.0
 32
0.0
 14
0.0
 24
0.0
 34
0.0
 15
0.0
 25
0.0
 35
0.0
146
0.0
 13
0.0
 23
0.0
 33
0.0
 16
1.0
 26
0.0
 36
0.0
 17
0.0
 27
1.0
 37
0.0
 76
     0
330
141
331
145
  0
MATERIAL
  5
11D
102
{ACAD_XDICTIONARY
360
162
102
}
102
{ACAD_REACTORS
330
11B
102
}
330
11B
100
AcDbMaterial
  1
ByBlock
  0
MATERIAL
  5
11C
102
{ACAD_XDICTIONARY
360
160
102
}
102
{ACAD_REACTORS
330
11B
102
}
330
11B
100
AcDbMaterial
  1
ByLayer
  0
MATERIAL
  5
11E
102
{ACAD_XDICTIONARY
360
164
102
}
102
{ACAD_REACTORS
330
11B
102
}
330
11B
100
AcDbMaterial
  1
Global
  0
MLINESTYLE
  5
137
102
{ACAD_REACTORS
330
136
102
}
330
136
100
AcDbMlineStyle
  2
STANDARD
 70
     0
  3

 62
   256
 51
90.0
 52
90.0
 71
     2
 49
0.5
 62
   256
  6
BYLAYER
 49
-0.5
 62
   256
  6
BYLAYER
  0
ACDBPLACEHOLDER
  5
11A
102
{ACAD_REACTORS
330
119
102
}
330
119
  0
TABLESTYLE
  5
13C
102
{ACAD_XDICTIONARY
360
166
102
}
102
{ACAD_REACTORS
330
13B
102
}
330
13B
100
AcDbTableStyle
  3
Standard
 70
     0
 71
     0
 40
0.06
 41
0.06
280
     0
281
     0
  7
STANDARD
140
0.18
170
     2
 62
     0
 63
     7
283
     0
274
    -2
284
     1
 64
     0
275
    -2
285
     1
 65
     0
276
    -2
286
     1
 66
     0
277
    -2
287
     1
 67
     0
278
    -2
288
     1
 68
     0
279
    -2
289
     1
 69
     0
  7
STANDARD
140
0.25
170
     5
 62
     0
 63
     7
283
     0
274
    -2
284
     1
 64
     0
275
    -2
285
     1
 65
     0
276
    -2
286
     1
 66
     0
277
    -2
287
     1
 67
     0
278
    -2
288
     1
 68
     0
279
    -2
289
     1
 69
     0
  7
STANDARD
140
0.18
170
     5
 62
     0
 63
     7
283
     0
274
    -2
284
     1
 64
     0
275
    -2
285
     1
 65
     0
276
    -2
286
     1
 66
     0
277
    -2
287
     1
 67
     0
278
    -2
288
     1
 68
     0
279
    -2
289
     1
 69
     0
  0
VISUALSTYLE
  5
125
102
{ACAD_REACTORS
330
11F
102
}
330
11F
100
AcDbVisualStyle
  2
2dWireframe
 70
     4
 71
     0
 72
     2
 73
     0
 90
        0
 40
-0.6
 41
-30.0
 62
     5
 63
     7
 74
     1
 91
        4
 64
     7
 65
   257
 75
     1
175
     1
 42
1.0
 92
        0
 66
   257
 43
1.0
 76
     1
 77
     6
 78
     2
 67
     7
 79
     5
170
     0
171
     0
290
     0
174
     0
 93
        1
 44
0.0
173
     0
291
     0
 45
0.0
1001
ACAD
1000
AcDbSavedByObjectVersion
1070
     0
  0
VISUALSTYLE
  5
127
102
{ACAD_REACTORS
330
11F
102
}
330
11F
100
AcDbVisualStyle
  2
3D Hidden
 70
     6
 71
     1
 72
     2
 73
     2
 90
        0
 40
-0.6
 41
-30.0
 62
     5
 63
     7
 74
     2
 91
        2
 64
     7
 65
   257
 75
     2
175
     1
 42
40.0
 92
        0
 66
   257
 43
1.0
 76
     1
 77
     6
 78
     2
 67
     7
 79
     3
170
     0
171
     0
290
     0
174
     0
 93
        1
 44
0.0
173
     0
291
     0
 45
0.0
1001
ACAD
1000
AcDbSavedByObjectVersion
1070
     0
  0
VISUALSTYLE
  5
126
102
{ACAD_REACTORS
330
11F
102
}
330
11F
100
AcDbVisualStyle
  2
3dWireframe
 70
     5
 71
     0
 72
     2
 73
     0
 90
        0
 40
-0.6
 41
-30.0
 62
     5
 63
     7
 74
     1
 91
        4
 64
     7
 65
   257
 75
     1
175
     1
 42
1.0
 92
        0
 66
   257
 43
1.0
 76
     1
 77
     6
 78
     2
 67
     7
 79
     5
170
     0
171
     0
290
     0
174
     0
 93
        1
 44
0.0
173
     0
291
     0
 45
0.0
1001
ACAD
1000
AcDbSavedByObjectVersion
1070
     0
  0
VISUALSTYLE
  5
124
102
{ACAD_REACTORS
330
11F
102
}
330
11F
100
AcDbVisualStyle
  2
Basic
 70
     7
 71
     1
 72
     0
 73
     1
 90
        0
 40
-0.6
 41
-30.0
 62
     5
 63
     7
 74
     0
 91
        4
 64
     7
 65
   257
 75
     1
175
     1
 42
1.0
 92
        8
 66
     7
 43
1.0
 76
     1
 77
     6
 78
     2
 67
     7
 79
     5
170
     0
171
     0
290
     0
174
     0
 93
        1
 44
0.0
173
     0
291
     1
 45
0.0
1001
ACAD
1000
AcDbSavedByObjectVersion
1070
     0
  0
VISUALSTYLE
  5
12B
102
{ACAD_REACTORS
330
11F
102
}
330
11F
100
AcDbVisualStyle
  2
Brighten
 70
    12
 71
     2
 72
     2
 73
     0
 90
        0
 40
-0.6
 41
-30.0
 62
     5
 63
     7
 74
     1
 91
        4
 64
     7
 65
   257
 75
     1
175
     1
 42
1.0
 92
        8
 66
     7
 43
1.0
 76
     1
 77
     6
 78
     2
 67
     7
 79
     5
170
     0
171
     0
290
     0
174
     0
 93
        1
 44
50.0
173
     0
291
     1
 45
0.0
1001
ACAD
1000
AcDbSavedByObjectVersion
1070
     0
  0
VISUALSTYLE
  5
12F
102
{ACAD_REACTORS
330
11F
102
}
330
11F
100
AcDbVisualStyle
  2
ColorChange
 70
    16
 71
     2
 72
     2
 73
     3
 90
        0
 40
-0.6
 41
-30.0
 62
     5
 63
     8
 74
     1
 91
        4
 64
     7
 65
   257
 75
     1
175
     1
 42
1.0
 92
        8
 66
     8
 43
1.0
 76
     1
 77
     6
 78
     2
 67
     7
 79
     5
170
     0
171
     0
290
     0
174
     0
 93
        1
 44
0.0
173
     0
291
     1
 45
0.0
1001
ACAD
1000
AcDbSavedByObjectVersion
1070
     0
  0
VISUALSTYLE
  5
128
102
{ACAD_REACTORS
330
11F
102
}
330
11F
100
AcDbVisualStyle
  2
Conceptual
 70
     9
 71
     3
 72
     2
 73
     0
 90
        0
 40
-0.6
 41
-30.0
 62
     5
 63
     7
 74
     2
 91
        2
 64
     7
 65
   257
 75
     1
175
     1
 42
40.0
 92
        8
 66
     7
 43
1.0
 76
     1
 77
     6
 78
     2
 67
     7
 79
     3
170
     0
171
     0
290
     0
174
     0
 93
        1
 44
0.0
173
     0
291
     0
 45
0.0
1001
ACAD
1000
AcDbSavedByObjectVersion
1070
     0
  0
VISUALSTYLE
  5
12A
102
{ACAD_REACTORS
330
11F
102
}
330
11F
100
AcDbVisualStyle
  2
Dim
 70
    11
 71
     2
 72
     2
 73
     0
 90
        0
 40
-0.6
 41
-30.0
 62
     5
 63
     7
 74
     1
 91
        4
 64
     7
 65
   257
 75
     1
175
     1
 42
1.0
 92
        8
 66
     7
 43
1.0
 76
     1
 77
     6
 78
     2
 67
     7
 79
     5
170
     0
171
     0
290
     0
174
     0
 93
        1
 44
-50.0
173
     0
291
     1
 45
0.0
1001
ACAD
1000
AcDbSavedByObjectVersion
1070
     0
  0
VISUALSTYLE
  5
12E
102
{ACAD_REACTORS
330
11F
102
}
330
11F
100
AcDbVisualStyle
  2
Facepattern
 70
    15
 71
     2
 72
     2
 73
     0
 90
        0
 40
-0.6
 41
-30.0
 62
     5
 63
     7
 74
     1
 91
        4
 64
     7
 65
   257
 75
     1
175
     1
 42
1.0
 92
        8
 66
     7
 43
1.0
 76
     1
 77
     6
 78
     2
 67
     7
 79
     5
170
     0
171
     0
290
     0
174
     0
 93
        1
 44
0.0
173
     0
291
     1
 45
0.0
1001
ACAD
1000
AcDbSavedByObjectVersion
1070
     0
  0
VISUALSTYLE
  5
120
102
{ACAD_REACTORS
330
11F
102
}
330
11F
100
AcDbVisualStyle
  2
Flat
 70
     0
 71
     2
 72
     1
 73
     1
 90
        2
 40
-0.6
 41
30.0
 62
     5
 63
     7
 74
     0
 91
        4
 64
     7
 65
   257
 75
     1
175
     1
 42
1.0
 92
        8
 66
     7
 43
1.0
 76
     1
 77
     6
 78
     2
 67
     7
 79
     5
170
     0
171
     0
290
     0
174
     0
 93
       13
 44
0.0
173
     0
291
     1
 45
0.0
1001
ACAD
1000
AcDbSavedByObjectVersion
1070
     0
  0
VISUALSTYLE
  5
121
102
{ACAD_REACTORS
330
11F
102
}
330
11F
100
AcDbVisualStyle
  2
FlatWithEdges
 70
     1
 71
     2
 72
     1
 73
     1
 90
        2
 40
-0.6
 41
30.0
 62
     5
 63
     7
 74
     1
 91
        4
 64
     7
 65
   257
 75
     1
175
     1
 42
1.0
 92
        0
 66
   257
 43
1.0
 76
     1
 77
     6
 78
     2
 67
     7
 79
     5
170
     0
171
     0
290
     0
174
     0
 93
       13
 44
0.0
173
     0
291
     1
 45
0.0
1001
ACAD
1000
AcDbSavedByObjectVersion
1070
     0
  0
VISUALSTYLE
  5
122
102
{ACAD_REACTORS
330
11F
102
}
330
11F
100
AcDbVisualStyle
  2
Gouraud
 70
     2
 71
     2
 72
     2
 73
     1
 90
        2
 40
-0.6
 41
30.0
 62
     5
 63
     7
 74
     0
 91
        4
 64
     7
 65
   257
 75
     1
175
     1
 42
1.0
 92
        0
 66
     7
 43
1.0
 76
     1
 77
     6
 78
     2
 67
     7
 79
     5
170
     0
171
     0
290
     0
174
     0
 93
       13
 44
0.0
173
     0
291
     1
 45
0.0
1001
ACAD
1000
AcDbSavedByObjectVersion
1070
     0
  0
VISUALSTYLE
  5
123
102
{ACAD_REACTORS
330
11F
102
}
330
11F
100
AcDbVisualStyle
  2
GouraudWithEdges
 70
     3
 71
     2
 72
     2
 73
     1
 90
        2
 40
-0.6
 41
30.0
 62
     5
 63
     7
 74
     1
 91
        4
 64
     7
 65
   257
 75
     1
175
     1
 42
1.0
 92
        0
 66
   257
 43
1.0
 76
     1
 77
     6
 78
     2
 67
     7
 79
     5
170
     0
171
     0
290
     0
174
     0
 93
       13
 44
0.0
173
     0
291
     1
 45
0.0
1001
ACAD
1000
AcDbSavedByObjectVersion
1070
     0
  0
VISUALSTYLE
  5
12D
102
{ACAD_REACTORS
330
11F
102
}
330
11F
100
AcDbVisualStyle
  2
Linepattern
 70
    14
 71
     2
 72
     2
 73
     0
 90
        0
 40
-0.6
 41
-30.0
 62
     5
 63
     7
 74
     1
 91
        4
 64
     7
 65
   257
 75
     7
175
     7
 42
1.0
 92
        8
 66
     7
 43
1.0
 76
     1
 77
     6
 78
     2
 67
     7
 79
     5
170
     0
171
     0
290
     0
174
     0
 93
        1
 44
0.0
173
     0
291
     1
 45
0.0
1001
ACAD
1000
AcDbSavedByObjectVersion
1070
     0
  0
VISUALSTYLE
  5
129
102
{ACAD_REACTORS
330
11F
102
}
330
11F
100
AcDbVisualStyle
  2
Realistic
 70
     8
 71
     2
 72
     2
 73
     0
 90
        0
 40
-0.6
 41
-30.0
 62
     5
 63
     7
 74
     1
 91
        0
 64
     7
 65
   257
 75
     1
175
     1
 42
1.0
 92
        8
 66
     8
 43
1.0
 76
     1
 77
     6
 78
     2
 67
     7
 79
     5
170
     0
171
     0
290
     0
174
     0
 93
       13
 44
0.0
173
     0
291
     0
 45
0.0
1001
ACAD
1000
AcDbSavedByObjectVersion
1070
     0
  0
VISUALSTYLE
  5
12C
102
{ACAD_REACTORS
330
11F
102
}
330
11F
100
AcDbVisualStyle
  2
Thicken
 70
    13
 71
     2
 72
     2
 73
     0
 90
        0
 40
-0.6
 41
-30.0
 62
     5
 63
     7
 74
     1
 91
        4
 64
     7
 65
   257
 75
     1
175
     1
 42
1.0
 92
       12
 66
     7
 43
1.0
 76
     1
 77
     6
 78
     2
 67
     7
 79
     5
170
     0
171
     0
290
     0
174
     0
 93
        1
 44
0.0
173
     0
291
     1
 45
0.0
1001
ACAD
1000
AcDbSavedByObjectVersion
1070
     0
  0
DICTIONARYVAR
  5
15B
102
{ACAD_REACTORS
330
15A
102
}
330
15A
100
DictionaryVariables
280
     0
  1
STANDARD
  0
DICTIONARYVAR
  5
15E
102
{ACAD_REACTORS
330
15A
102
}
330
15A
100
DictionaryVariables
280
     0
  1
1
  0
DICTIONARYVAR
  5
15D
102
{ACAD_REACTORS
330
15A
102
}
330
15A
100
DictionaryVariables
280
     0
  1
0
  0
DICTIONARYVAR
  5
15C
102
{ACAD_REACTORS
330
15A
102
}
330
15A
100
DictionaryVariables
280
     0
  1
127
  0
DICTIONARY
  5
168
330
140
100
AcDbDictionary
280
     1
281
     1
  3
ACAD_XREC_ROUNDTRIP
360
169
  0
DICTIONARY
  5
16A
330
144
100
AcDbDictionary
280
     1
281
     1
  3
ACAD_XREC_ROUNDTRIP
360
16B
  0
DICTIONARY
  5
162
330
11D
100
AcDbDictionary
280
     1
281
     1
  3
ACAD_XREC_ROUNDTRIP
360
163
  0
DICTIONARY
  5
160
330
11C
100
AcDbDictionary
280
     1
281
     1
  3
ACAD_XREC_ROUNDTRIP
360
161
  0
DICTIONARY
  5
164
330
11E
100
AcDbDictionary
280
     1
281
     1
  3
ACAD_XREC_ROUNDTRIP
360
165
  0
DICTIONARY
  5
166
330
13C
100
AcDbDictionary
280
     1
281
     1
  3
ACAD_XREC_ROUNDTRIP
360
167
  0
XRECORD
  5
169
102
{ACAD_REACTORS
330
168
102
}
330
168
100
AcDbXrecord
280
     1
102
SHADEPLOT
 70
     0
102
SHADEPLOTRESLEVEL
 70
     2
102
SHADEPLOTCUSTOMDPI
 70
   300
  0
XRECORD
  5
16B
102
{ACAD_REACTORS
330
16A
102
}
330
16A
100
AcDbXrecord
280
     1
102
SHADEPLOT
 70
     0
102
SHADEPLOTRESLEVEL
 70
     2
102
SHADEPLOTCUSTOMDPI
 70
   300
  0
XRECORD
  5
163
102
{ACAD_REACTORS
330
162
102
}
330
162
100
AcDbXrecord
280
     1
102
MATERIAL
148
0.0
149
0.0
149
0.0
 93
        0
 94
       63
282
     0
 72
     1
 77
     1
171
     1
175
     1
179
     1
273
     0
  0
XRECORD
  5
161
102
{ACAD_REACTORS
330
160
102
}
330
160
100
AcDbXrecord
280
     1
102
MATERIAL
148
0.0
149
0.0
149
0.0
 93
        0
 94
       63
282
     0
 72
     1
 77
     1
171
     1
175
     1
179
     1
273
     0
  0
XRECORD
  5
165
102
{ACAD_REACTORS
330
164
102
}
330
164
100
AcDbXrecord
280
     1
102
MATERIAL
148
0.0
149
0.0
149
0.0
 93
        0
 94
       63
282
     0
 72
     1
 77
     1
171
     1
175
     1
179
     1
273
     0
  0
XRECORD
  5
167
102
{ACAD_REACTORS
330
166
102
}
330
166
100
AcDbXrecord
280
     1
102
ACAD_ROUNDTRIP_PRE2007_TABLESTYLE
 90
      512
 91
        0
  1

 92
      512
 93
        0
  2

 94
      512
 95
        0
  3

  0
ENDSEC
  0
EOF
