  0
SECTION
  2
HEADER
  9
$ACADVER
  1
AC1015
  9
$ACADMAINTVER
 70
    20
  9
$DWGCODEPAGE
  3
ANSI_1252
  9
$INSBASE
 10
0.0
 20
0.0
 30
0.0
  9
$EXTMIN
 10
-14.49584380548458
 20
-46.38671298323515
 30
-0.1525820700362601
  9
$EXTMAX
 10
5.035403888946348
 20
84.38110710631736
 30
0.0000034924596548
  9
$LIMMIN
 10
0.0
 20
0.0
  9
$LIMMAX
 10
420.0
 20
297.0
  9
$ORTHOMODE
 70
     0
  9
$REGENMODE
 70
     1
  9
$FILLMODE
 70
     1
  9
$QTEXTMODE
 70
     0
  9
$MIRRTEXT
 70
     1
  9
$LTSCALE
 40
1.0
  9
$ATTMODE
 70
     1
  9
$TEXTSIZE
 40
2.5
  9
$TRACEWID
 40
1.0
  9
$TEXTSTYLE
  7
STANDARD
  9
$CLAYER
  8
0
  9
$CELTYPE
  6
BYLAYER
  9
$CECOLOR
 62
   256
  9
$CELTSCALE
 40
1.0
  9
$DISPSILH
 70
     0
  9
$DIMSCALE
 40
1.0
  9
$DIMASZ
 40
2.5
  9
$DIMEXO
 40
0.625
  9
$DIMDLI
 40
3.75
  9
$DIMRND
 40
0.0
  9
$DIMDLE
 40
0.0
  9
$DIMEXE
 40
1.25
  9
$DIMTP
 40
0.0
  9
$DIMTM
 40
0.0
  9
$DIMTXT
 40
2.5
  9
$DIMCEN
 40
2.5
  9
$DIMTSZ
 40
0.0
  9
$DIMTOL
 70
     0
  9
$DIMLIM
 70
     0
  9
$DIMTIH
 70
     0
  9
$DIMTOH
 70
     0
  9
$DIMSE1
 70
     0
  9
$DIMSE2
 70
     0
  9
$DIMTAD
 70
     1
  9
$DIMZIN
 70
     8
  9
$DIMBLK
  1

  9
$DIMASO
 70
     1
  9
$DIMSHO
 70
     1
  9
$DIMPOST
  1

  9
$DIMAPOST
  1

  9
$DIMALT
 70
     0
  9
$DIMALTD
 70
     3
  9
$DIMALTF
 40
0.03937007874016
  9
$DIMLFAC
 40
1.0
  9
$DIMTOFL
 70
     1
  9
$DIMTVP
 40
0.0
  9
$DIMTIX
 70
     0
  9
$DIMSOXD
 70
     0
  9
$DIMSAH
 70
     0
  9
$DIMBLK1
  1

  9
$DIMBLK2
  1

  9
$DIMSTYLE
  2
ISO-25
  9
$DIMCLRD
 70
     0
  9
$DIMCLRE
 70
     0
  9
$DIMCLRT
 70
     0
  9
$DIMTFAC
 40
1.0
  9
$DIMGAP
 40
0.625
  9
$DIMJUST
 70
     0
  9
$DIMSD1
 70
     0
  9
$DIMSD2
 70
     0
  9
$DIMTOLJ
 70
     0
  9
$DIMTZIN
 70
     8
  9
$DIMALTZ
 70
     0
  9
$DIMALTTZ
 70
     0
  9
$DIMUPT
 70
     0
  9
$DIMDEC
 70
     2
  9
$DIMTDEC
 70
     2
  9
$DIMALTU
 70
     2
  9
$DIMALTTD
 70
     3
  9
$DIMTXSTY
  7
STANDARD
  9
$DIMAUNIT
 70
     0
  9
$DIMADEC
 70
     0
  9
$DIMALTRND
 40
0.0
  9
$DIMAZIN
 70
     0
  9
$DIMDSEP
 70
    46
  9
$DIMATFIT
 70
     3
  9
$DIMFRAC
 70
     0
  9
$DIMLDRBLK
  1

  9
$DIMLUNIT
 70
     2
  9
$DIMLWD
 70
    -2
  9
$DIMLWE
 70
    -2
  9
$DIMTMOVE
 70
     0
  9
$LUNITS
 70
     2
  9
$LUPREC
 70
     4
  9
$SKETCHINC
 40
1.0
  9
$FILLETRAD
 40
10.0
  9
$AUNITS
 70
     0
  9
$AUPREC
 70
     0
  9
$MENU
  1
.
  9
$ELEVATION
 40
0.0
  9
$PELEVATION
 40
0.0
  9
$THICKNESS
 40
0.0
  9
$LIMCHECK
 70
     0
  9
$CHAMFERA
 40
10.0
  9
$CHAMFERB
 40
10.0
  9
$CHAMFERC
 40
20.0
  9
$CHAMFERD
 40
0.0
  9
$SKPOLY
 70
     0
  9
$TDCREATE
 40
2456343.837685185
  9
$TDUCREATE
 40
2456343.608518519
  9
$TDUPDATE
 40
2456343.654143091
  9
$TDUUPDATE
 40
2456343.424976423
  9
$TDINDWG
 40
0.0076766898
  9
$TDUSRTIMER
 40
0.0076765162
  9
$USRTIMER
 70
     1
  9
$ANGBASE
 50
0.0
  9
$ANGDIR
 70
     0
  9
$PDMODE
 70
     0
  9
$PDSIZE
 40
0.0
  9
$PLINEWID
 40
0.0
  9
$SPLFRAME
 70
     0
  9
$SPLINETYPE
 70
     6
  9
$SPLINESEGS
 70
     8
  9
$HANDSEED
  5
2D7
  9
$SURFTAB1
 70
     6
  9
$SURFTAB2
 70
     6
  9
$SURFTYPE
 70
     6
  9
$SURFU
 70
     6
  9
$SURFV
 70
     6
  9
$UCSBASE
  2

  9
$UCSNAME
  2

  9
$UCSORG
 10
0.0
 20
0.0
 30
0.0
  9
$UCSXDIR
 10
1.0
 20
0.0
 30
0.0
  9
$UCSYDIR
 10
0.0
 20
1.0
 30
0.0
  9
$UCSORTHOREF
  2

  9
$UCSORTHOVIEW
 70
     0
  9
$UCSORGTOP
 10
0.0
 20
0.0
 30
0.0
  9
$UCSORGBOTTOM
 10
0.0
 20
0.0
 30
0.0
  9
$UCSORGLEFT
 10
0.0
 20
0.0
 30
0.0
  9
$UCSORGRIGHT
 10
0.0
 20
0.0
 30
0.0
  9
$UCSORGFRONT
 10
0.0
 20
0.0
 30
0.0
  9
$UCSORGBACK
 10
0.0
 20
0.0
 30
0.0
  9
$PUCSBASE
  2

  9
$PUCSNAME
  2

  9
$PUCSORG
 10
0.0
 20
0.0
 30
0.0
  9
$PUCSXDIR
 10
1.0
 20
0.0
 30
0.0
  9
$PUCSYDIR
 10
0.0
 20
1.0
 30
0.0
  9
$PUCSORTHOREF
  2

  9
$PUCSORTHOVIEW
 70
     0
  9
$PUCSORGTOP
 10
0.0
 20
0.0
 30
0.0
  9
$PUCSORGBOTTOM
 10
0.0
 20
0.0
 30
0.0
  9
$PUCSORGLEFT
 10
0.0
 20
0.0
 30
0.0
  9
$PUCSORGRIGHT
 10
0.0
 20
0.0
 30
0.0
  9
$PUCSORGFRONT
 10
0.0
 20
0.0
 30
0.0
  9
$PUCSORGBACK
 10
0.0
 20
0.0
 30
0.0
  9
$USERI1
 70
     0
  9
$USERI2
 70
     0
  9
$USERI3
 70
     0
  9
$USERI4
 70
     0
  9
$USERI5
 70
     0
  9
$USERR1
 40
0.0
  9
$USERR2
 40
0.0
  9
$USERR3
 40
0.0
  9
$USERR4
 40
0.0
  9
$USERR5
 40
0.0
  9
$WORLDVIEW
 70
     1
  9
$SHADEDGE
 70
     3
  9
$SHADEDIF
 70
    70
  9
$TILEMODE
 70
     1
  9
$MAXACTVP
 70
    64
  9
$PINSBASE
 10
0.0
 20
0.0
 30
0.0
  9
$PLIMCHECK
 70
     0
  9
$PEXTMIN
 10
-1000.0
 20
-1000.0
 30
0.0
  9
$PEXTMAX
 10
1000.0
 20
1000.0
 30
0.0
  9
$PLIMMIN
 10
-100.0
 20
-100.0
  9
$PLIMMAX
 10
100.0
 20
100.0
  9
$UNITMODE
 70
     0
  9
$VISRETAIN
 70
     1
  9
$PLINEGEN
 70
     0
  9
$PSLTSCALE
 70
     1
  9
$TREEDEPTH
 70
  3020
  9
$CMLSTYLE
  2
STANDARD
  9
$CMLJUST
 70
     0
  9
$CMLSCALE
 40
20.0
  9
$PROXYGRAPHICS
 70
     1
  9
$MEASUREMENT
 70
     0
  9
$CELWEIGHT
370
    -1
  9
$ENDCAPS
280
     0
  9
$JOINSTYLE
280
     0
  9
$LWDISPLAY
290
     0
  9
$INSUNITS
 70
     0
  9
$HYPERLINKBASE
  1

  9
$STYLESHEET
  1

  9
$XEDIT
290
     1
  9
$CEPSNTYPE
380
     0
  9
$PSTYLEMODE
290
     1
  9
$FINGERPRINTGUID
  2
{DB85C98F-4F96-4933-9066-6F6F9EB7B9DB}
  9
$VERSIONGUID
  2
{9C760FBE-17DA-4C12-B3F3-AC5E879C24B4}
  9
$EXTNAMES
290
     1
  9
$PSVPSCALE
 40
0.0
  9
$OLESTARTUP
290
     0
  0
ENDSEC
  0
SECTION
  2
CLASSES
  0
CLASS
  1
ACDBDICTIONARYWDFLT
  2
AcDbDictionaryWithDefault
  3
ObjectDBX Classes
 90
        0
280
     0
281
     0
  0
CLASS
  1
VISUALSTYLE
  2
AcDbVisualStyle
  3
ObjectDBX Classes
 90
     4095
280
     0
281
     0
  0
CLASS
  1
MATERIAL
  2
AcDbMaterial
  3
ObjectDBX Classes
 90
     1153
280
     0
281
     0
  0
CLASS
  1
SCALE
  2
AcDbScale
  3
ObjectDBX Classes
 90
     1153
280
     0
281
     0
  0
CLASS
  1
DICTIONARYVAR
  2
AcDbDictionaryVar
  3
ObjectDBX Classes
 90
        0
280
     0
281
     0
  0
CLASS
  1
XRECORD
  2
AcDbXrecord
  3
ObjectDBX Classes
 90
        0
280
     0
281
     0
  0
CLASS
  1
LWPOLYLINE
  2
AcDbPolyline
  3
ObjectDBX Classes
 90
    32768
280
     0
281
     1
  0
CLASS
  1
HATCH
  2
AcDbHatch
  3
ObjectDBX Classes
 90
    32768
280
     0
281
     1
  0
CLASS
  1
ACDBPLACEHOLDER
  2
AcDbPlaceHolder
  3
ObjectDBX Classes
 90
        0
280
     0
281
     0
  0
CLASS
  1
LAYOUT
  2
AcDbLayout
  3
ObjectDBX Classes
 90
        0
280
     0
281
     0
  0
CLASS
  1
TABLESTYLE
  2
AcDbTableStyle
  3
ObjectDBX Classes
 90
     4095
280
     0
281
     0
  0
CLASS
  1
MLEADERSTYLE
  2
AcDbMLeaderStyle
  3
ACDB_MLEADERSTYLE_CLASS
 90
     4095
280
     0
281
     0
  0
CLASS
  1
CELLSTYLEMAP
  2
AcDbCellStyleMap
  3
ObjectDBX Classes
 90
     1152
280
     0
281
     0
  0
CLASS
  1
DIMASSOC
  2
AcDbDimAssoc
  3
"AcDbDimAssoc|Product Desc:     AcDim ARX App For Dimension|Company:          Autodesk, Inc.|WEB Address:      www.autodesk.com"
 90
        0
280
     0
281
     0
  0
ENDSEC
  0
SECTION
  2
TABLES
  0
TABLE
  2
VPORT
  5
8
330
0
100
AcDbSymbolTable
 70
     1
  0
VPORT
  5
29
330
8
100
AcDbSymbolTableRecord
100
AcDbViewportTableRecord
  2
*ACTIVE
 70
     0
 10
0.0
 20
0.0
 11
1.0
 21
1.0
 12
-4.730219958269131
 22
18.99719706154111
 13
0.0
 23
0.0
 14
10.0
 24
10.0
 15
10.0
 25
10.0
 16
0.0
 26
0.0
 36
1.0
 17
0.0
 27
0.0
 37
0.0
 40
131.594592397811
 41
1.922995780590717
 42
50.0
 43
0.0
 44
0.0
 50
0.0
 51
0.0
 71
     0
 72
   100
 73
     1
 74
     3
 75
     0
 76
     0
 77
     0
 78
     0
281
     0
 65
     1
110
0.0
120
0.0
130
0.0
111
1.0
121
0.0
131
0.0
112
0.0
122
1.0
132
0.0
 79
     0
146
0.0
1001
ACAD_NAV_VCDISPLAY
1070
     3
  0
ENDTAB
  0
TABLE
  2
LTYPE
  5
5
330
0
100
AcDbSymbolTable
 70
     3
  0
LTYPE
  5
14
330
5
100
AcDbSymbolTableRecord
100
AcDbLinetypeTableRecord
  2
BYBLOCK
 70
     0
  3

 72
    65
 73
     0
 40
0.0
  0
LTYPE
  5
15
330
5
100
AcDbSymbolTableRecord
100
AcDbLinetypeTableRecord
  2
BYLAYER
 70
     0
  3

 72
    65
 73
     0
 40
0.0
  0
LTYPE
  5
16
330
5
100
AcDbSymbolTableRecord
100
AcDbLinetypeTableRecord
  2
CONTINUOUS
 70
     0
  3
Solid line
 72
    65
 73
     0
 40
0.0
  0
LTYPE
  5
41
330
5
100
AcDbSymbolTableRecord
100
AcDbLinetypeTableRecord
  2
DASHED
 70
     0
  3

 72
    65
 73
     2
 40
2.0
 49
1.0
 74
     0
 49
-1.0
 74
     0
  0
LTYPE
  5
43
330
5
100
AcDbSymbolTableRecord
100
AcDbLinetypeTableRecord
  2
CENTER
 70
     0
  3

 72
    65
 73
     4
 40
1.5
 49
0.45
 74
     0
 49
-0.5
 74
     0
 49
0.05
 74
     0
 49
-0.5
 74
     0
  0
ENDTAB
  0
TABLE
  2
LAYER
  5
2
330
0
100
AcDbSymbolTable
 70
    11
  0
LAYER
  5
10
102
{ACAD_XDICTIONARY
360
17B
102
}
330
2
100
AcDbSymbolTableRecord
100
AcDbLayerTableRecord
  2
0
 70
     0
 62
     7
  6
CONTINUOUS
370
    -3
390
161
  0
LAYER
  5
202
330
2
100
AcDbSymbolTableRecord
100
AcDbLayerTableRecord
  2
Defpoints
 70
     0
 62
     7
  6
CONTINUOUS
290
     0
370
    -3
390
161
  0
ENDTAB
  0
TABLE
  2
STYLE
  5
3
330
0
100
AcDbSymbolTable
 70
     1
  0
STYLE
  5
11
330
3
100
AcDbSymbolTableRecord
100
AcDbTextStyleTableRecord
  2
STANDARD
 70
     0
 40
0.0
 41
1.0
 50
0.0
 71
     0
 42
2.5
  3
txt
  4

  0
ENDTAB
  0
TABLE
  2
VIEW
  5
6
330
0
100
AcDbSymbolTable
 70
     3
  0
ENDTAB
  0
TABLE
  2
UCS
  5
7
330
0
100
AcDbSymbolTable
 70
     0
  0
ENDTAB
  0
TABLE
  2
APPID
  5
9
330
0
100
AcDbSymbolTable
 70
     3
  0
APPID
  5
12
330
9
100
AcDbSymbolTableRecord
100
AcDbRegAppTableRecord
  2
ACAD
 70
     0
  0
APPID
  5
184
330
9
100
AcDbSymbolTableRecord
100
AcDbRegAppTableRecord
  2
ACAD_NAV_VCDISPLAY
 70
     0
  0
APPID
  5
2D2
330
9
100
AcDbSymbolTableRecord
100
AcDbRegAppTableRecord
  2
ACAD_MLEADERVER
 70
     0
  0
ENDTAB
  0
TABLE
  2
DIMSTYLE
  5
A
330
0
100
AcDbSymbolTable
 70
     1
100
AcDbDimStyleTable
 71
     1
340
27
  0
DIMSTYLE
105
27
330
A
100
AcDbSymbolTableRecord
100
AcDbDimStyleTableRecord
  2
ISO-25
 70
     0
 41
2.5
 42
0.625
 43
3.75
 44
1.25
 73
     0
 74
     0
 77
     1
 78
     8
140
2.5
141
2.5
143
0.03937007874016
147
0.625
171
     3
172
     1
271
     2
272
     2
274
     3
283
     0
284
     8
340
11
  0
ENDTAB
  0
TABLE
  2
BLOCK_RECORD
  5
1
330
0
100
AcDbSymbolTable
 70
     1
  0
BLOCK_RECORD
  5
1F
330
1
100
AcDbSymbolTableRecord
100
AcDbBlockTableRecord
  2
*MODEL_SPACE
340
170
  0
BLOCK_RECORD
  5
1B
330
1
100
AcDbSymbolTableRecord
100
AcDbBlockTableRecord
  2
*PAPER_SPACE
340
171
  0
BLOCK_RECORD
  5
203
330
1
100
AcDbSymbolTableRecord
100
AcDbBlockTableRecord
  2
*D0
340
0
  0
ENDTAB
  0
ENDSEC
  0
SECTION
  2
BLOCKS
  0
BLOCK
  5
20
330
1F
100
AcDbEntity
  8
0
100
AcDbBlockBegin
  2
*MODEL_SPACE
 70
     0
 10
0.0
 20
0.0
 30
0.0
  3
*MODEL_SPACE
  1

  0
ENDBLK
  5
21
330
1F
100
AcDbEntity
  8
0
100
AcDbBlockEnd
  0
BLOCK
  5
1C
330
1B
100
AcDbEntity
 67
     1
  8
0
100
AcDbBlockBegin
  2
*PAPER_SPACE
 70
     0
 10
0.0
 20
0.0
 30
0.0
  3
*PAPER_SPACE
  1

  0
ENDBLK
  5
1D
330
1B
100
AcDbEntity
 67
     1
  8
0
100
AcDbBlockEnd
  0
BLOCK
  5
204
330
203
100
AcDbEntity
  8
0
100
AcDbBlockBegin
  2
*D0
 70
     1
 10
0.0
 20
0.0
 30
0.0
  3
*D0
  1

  0
LINE
  5
210
330
203
100
AcDbEntity
  8
0
 62
     0
370
    -2
100
AcDbLine
 10
1.625000000000015
 20
82.50103388767888
 30
0.0
 11
27.66618601296251
 21
82.50103388767888
 31
0.0
  0
LINE
  5
211
330
203
100
AcDbEntity
  8
0
 62
     0
370
    -2
100
AcDbLine
 10
1.624999999999991
 20
-44.50103388767889
 30
0.0
 11
27.66618601296248
 21
-44.5010338876789
 31
0.0
  0
LINE
  5
212
330
203
100
AcDbEntity
  8
0
 62
     0
370
    -2
100
AcDbLine
 10
26.41618601296251
 20
80.00103388767888
 30
0.0
 11
26.41618601296249
 21
-42.0010338876789
 31
0.0
  0
SOLID
  5
213
330
203
100
AcDbEntity
  8
0
 62
     0
100
AcDbTrace
 10
25.99951934629585
 20
80.00103388767888
 30
0.0
 11
26.83285267962918
 21
80.00103388767888
 31
0.0
 12
26.41618601296251
 22
82.50103388767888
 32
0.0
 13
26.41618601296251
 23
82.50103388767888
 33
0.0
  0
SOLID
  5
214
330
203
100
AcDbEntity
  8
0
 62
     0
100
AcDbTrace
 10
25.99951934629582
 20
-42.0010338876789
 30
0.0
 11
26.83285267962915
 21
-42.0010338876789
 31
0.0
 12
26.41618601296249
 22
-44.5010338876789
 32
0.0
 13
26.41618601296249
 23
-44.5010338876789
 33
0.0
  0
MTEXT
  5
215
330
203
100
AcDbEntity
  8
0
 62
     0
100
AcDbMText
 10
24.54118601296249
 20
19.0
 30
0.0
 40
2.5
 41
0.0
 71
     5
 72
     1
  1
127
 11
0.0000000000000001
 21
1.0
 31
0.0
 73
     1
 44
1.0
1001
ACAD
1000
MTEXTBEGIN
1070
    73
1070
     1
1070
    44
1040
1.0
1070
    74
1070
     0
1000
MTEXTEND
  0
POINT
  5
216
330
203
100
AcDbEntity
  8
Defpoints
 62
     0
100
AcDbPoint
 10
1.000000000000015
 20
82.50103388767888
 30
0.0
  0
POINT
  5
217
330
203
100
AcDbEntity
  8
Defpoints
 62
     0
100
AcDbPoint
 10
0.9999999999999918
 20
-44.50103388767889
 30
0.0
  0
POINT
  5
218
330
203
100
AcDbEntity
  8
Defpoints
 62
     0
100
AcDbPoint
 10
26.41618601296249
 20
-44.5010338876789
 30
0.0
  0
ENDBLK
  5
205
330
203
100
AcDbEntity
  8
0
100
AcDbBlockEnd
  0
ENDSEC
  0
SECTION
  2
ENTITIES
  0
LINE
  5
4A
330
1F
100
AcDbEntity
  8
0
  6
DASHED
100
AcDbLine
 10
1.000000000000013
 20
75.84999999999999
 30
0.0
 11
0.0000000000000139
 21
75.84999999999999
 31
0.0
  0
LINE
  5
4B
330
1F
100
AcDbEntity
  8
0
  6
DASHED
100
AcDbLine
 10
0.0000000000000129
 20
70.15
 30
0.0
 11
1.000000000000012
 21
70.15
 31
0.0
  0
LINE
  5
4C
330
1F
100
AcDbEntity
  8
0
  6
DASHED
100
AcDbLine
 10
1.000000000000007
 20
40.84999999999999
 30
0.0
 11
0.0000000000000075
 21
40.84999999999999
 31
0.0
  0
LINE
  5
4D
330
1F
100
AcDbEntity
  8
0
  6
DASHED
100
AcDbLine
 10
0.0000000000000065
 20
35.15
 30
0.0
 11
1.000000000000006
 21
35.15
 31
0.0
  0
LINE
  5
4E
330
1F
100
AcDbEntity
  8
0
  6
DASHED
100
AcDbLine
 10
0.9999999999999941
 20
-32.15
 30
0.0
 11
-0.0000000000000059
 21
-32.15
 31
0.0
  0
LINE
  5
4F
330
1F
100
AcDbEntity
  8
0
  6
DASHED
100
AcDbLine
 10
-0.000000000000007
 20
-37.85
 30
0.0
 11
0.999999999999993
 21
-37.85
 31
0.0
  0
LINE
  5
50
330
1F
100
AcDbEntity
  8
0
  6
DASHED
100
AcDbLine
 10
1.0
 20
2.85
 30
0.0
 11
0.0000000000000005
 21
2.85
 31
0.0
  0
LINE
  5
51
330
1F
100
AcDbEntity
  8
0
  6
DASHED
100
AcDbLine
 10
-0.0000000000000005
 20
-2.85
 30
0.0
 11
0.9999999999999994
 21
-2.85
 31
0.0
  0
LINE
  5
52
330
1F
100
AcDbEntity
  8
0
  6
DASHED
100
AcDbLine
 10
0.0000000000000138
 20
51.10012083009384
 30
0.0
 11
-0.9999999999999905
 21
51.10012083009384
 31
0.0
  0
LINE
  5
53
330
1F
100
AcDbEntity
  8
0
  6
DASHED
100
AcDbLine
 10
-0.9999999999999914
 20
45.65968596742425
 30
0.0
 11
0.0000000000000084
 21
45.65968596742425
 31
0.0
  0
LINE
  5
54
330
1F
100
AcDbEntity
  8
0
  6
DASHED
100
AcDbLine
 10
-0.0000000000000007
 20
-27.50211487181256
 30
0.0
 11
-1.000000000000005
 21
-27.50211487181256
 31
0.0
  0
LINE
  5
55
330
1F
100
AcDbEntity
  8
0
  6
DASHED
100
AcDbLine
 10
-1.000000000000005
 20
-32.94254973448215
 30
0.0
 11
-0.0000000000000061
 21
-32.94254973448215
 31
0.0
  0
LINE
  5
56
330
1F
100
AcDbEntity
  8
0
  6
DASHED
100
AcDbLine
 10
0.0000000000000065
 20
11.60043703024632
 30
0.0
 11
-0.9999999999999978
 21
11.60043703024632
 31
0.0
  0
LINE
  5
57
330
1F
100
AcDbEntity
  8
0
  6
DASHED
100
AcDbLine
 10
-0.9999999999999989
 20
6.160002167576732
 30
0.0
 11
0.0000000000000011
 21
6.160002167576732
 31
0.0
  0
LINE
  5
58
330
1F
100
AcDbEntity
  8
0
  6
DASHED
100
AcDbLine
 10
0.0000000000000147
 20
80.03016391841669
 30
0.0
 11
1.000000000000014
 21
80.03016391841669
 31
0.0
  0
LINE
  5
59
330
1F
100
AcDbEntity
  8
0
  6
DASHED
100
AcDbLine
 10
-0.0000000000000082
 20
-44.50103388767889
 30
0.0
 11
0.0000000000000149
 21
81.23657181921061
 31
0.0
  0
LINE
  5
5A
330
1F
100
AcDbEntity
  8
0
  6
DASHED
100
AcDbLine
 10
1.000000000000014
 20
81.23657181921061
 30
0.0
 11
0.9999999999999918
 21
-44.50103388767889
 31
0.0
  0
LINE
  5
5B
330
1F
100
AcDbEntity
  8
0
  6
DASHED
100
AcDbLine
 10
0.0080749752709326
 20
80.5
 30
0.0
 11
0.00807497527091
 21
-42.5
 31
0.0
  0
ARC
  5
5C
330
1F
100
AcDbEntity
  8
0
  6
DASHED
100
AcDbCircle
 10
-6.500000000000007
 20
-38.5
 30
0.0
 40
7.500000000000002
100
AcDbArc
 50
180.0
 51
0.0
  0
ARC
  5
5D
330
1F
100
AcDbEntity
  8
0
  6
DASHED
100
AcDbCircle
 10
-6.499999999999982
 20
76.5
 30
0.0
 40
6.5
100
AcDbArc
 50
0.0
 51
180.0
  0
LINE
  5
5E
330
1F
100
AcDbEntity
  8
0
  6
DASHED
100
AcDbLine
 10
-13.0
 20
-38.5
 30
0.0
 11
-12.99999999999998
 21
76.5
 31
0.0
  0
ARC
  5
5F
330
1F
100
AcDbEntity
  8
0
  6
DASHED
100
AcDbCircle
 10
-6.500000000000009
 20
-38.5
 30
0.0
 40
6.499999999999999
100
AcDbArc
 50
180.0
 51
0.0
  0
LINE
  5
60
330
1F
100
AcDbEntity
  8
0
  6
DASHED
100
AcDbLine
 10
-0.9999999999999907
 20
50.69274186372489
 30
0.0
 11
0.0000000000000124
 21
50.69274186372489
 31
0.0
  0
LINE
  5
61
330
1F
100
AcDbEntity
  8
0
  6
DASHED
100
AcDbLine
 10
-0.9999999999999907
 20
50.57773228648454
 30
0.0
 11
0.0000000000000093
 21
50.57773228648454
 31
0.0
  0
LINE
  5
62
330
1F
100
AcDbEntity
  8
0
  6
DASHED
100
AcDbLine
 10
-0.9999999999999914
 20
46.65968596742425
 30
0.0
 11
0.0000000000000086
 21
46.65968596742425
 31
0.0
  0
LINE
  5
63
330
1F
100
AcDbEntity
  8
0
  6
DASHED
100
AcDbLine
 10
-0.9999999999999914
 20
45.99760520865463
 30
0.0
 11
0.0000000000000084
 21
45.99760520865463
 31
0.0
  0
LINE
  5
64
330
1F
100
AcDbEntity
  8
0
  6
DASHED
100
AcDbLine
 10
-0.9999999999999889
 20
60.3
 30
0.0
 11
0.0000000000000111
 21
60.3
 31
0.0
  0
LINE
  5
65
330
1F
100
AcDbEntity
  8
0
  6
DASHED
100
AcDbLine
 10
0.0000000000000167
 20
68.3
 30
0.0
 11
-0.9999999999999873
 21
68.3
 31
0.0
  0
LINE
  5
66
330
1F
100
AcDbEntity
  8
0
  6
DASHED
100
AcDbLine
 10
-0.9999999999999873
 20
68.3
 30
0.0
 11
-0.9999999999999914
 21
45.65968596742425
 31
0.0
  0
LINE
  5
67
330
1F
100
AcDbEntity
  8
0
  6
DASHED
100
AcDbLine
 10
0.0000000000000091
 20
49.5322357019064
 30
0.0
 11
-0.9999999999999909
 21
49.5322357019064
 31
0.0
  0
LINE
  5
68
330
1F
100
AcDbEntity
  8
0
  6
DASHED
100
AcDbLine
 10
-0.9999999999999873
 20
68.79999999999999
 30
0.0
 11
0.0000000000000126
 21
68.79999999999999
 31
0.0
  0
ARC
  5
69
330
1F
100
AcDbEntity
  8
0
  6
DASHED
100
AcDbCircle
 10
-6.499999999999825
 20
76.50000000000007
 30
0.0
 40
7.499999999999845
100
AcDbArc
 50
0.0
 51
32.2309526355024
  0
ARC
  5
6A
330
1F
100
AcDbEntity
  8
0
  6
DASHED
100
AcDbCircle
 10
-0.0000000000000036
 20
-12.0
 30
0.0
 40
0.0999999999999996
100
AcDbArc
 50
270.0
 51
89.99999999999998
  0
LINE
  5
6B
330
1F
100
AcDbEntity
  8
0
  6
DASHED
100
AcDbLine
 10
-0.0000000000000053
 20
-29.07
 30
0.0
 11
-1.000000000000005
 21
-29.07
 31
0.0
  0
LINE
  5
6C
330
1F
100
AcDbEntity
  8
0
  6
DASHED
100
AcDbLine
 10
-1.000000000000005
 20
-27.9094938381815
 30
0.0
 11
-0.0000000000000067
 21
-27.9094938381815
 31
0.0
  0
LINE
  5
6D
330
1F
100
AcDbEntity
  8
0
  6
DASHED
100
AcDbLine
 10
-1.000000000000005
 20
-28.02450341542187
 30
0.0
 11
-0.0000000000000051
 21
-28.02450341542187
 31
0.0
  0
LINE
  5
6E
330
1F
100
AcDbEntity
  8
0
  6
DASHED
100
AcDbLine
 10
-1.000000000000005
 20
-31.94254973448215
 30
0.0
 11
-0.0000000000000059
 21
-31.94254973448215
 31
0.0
  0
LINE
  5
6F
330
1F
100
AcDbEntity
  8
0
  6
DASHED
100
AcDbLine
 10
-1.000000000000005
 20
-32.60463049325178
 30
0.0
 11
-0.000000000000006
 21
-32.60463049325178
 31
0.0
  0
LINE
  5
70
330
1F
100
AcDbEntity
  8
0
  6
DASHED
100
AcDbLine
 10
-1.000000000000003
 20
-18.30223570190639
 30
0.0
 11
-0.0000000000000034
 21
-18.30223570190639
 31
0.0
  0
LINE
  5
71
330
1F
100
AcDbEntity
  8
0
  6
DASHED
100
AcDbLine
 10
-0.0000000000000025
 20
-10.30223570190641
 30
0.0
 11
-1.000000000000001
 21
-10.30223570190641
 31
0.0
  0
LINE
  5
72
330
1F
100
AcDbEntity
  8
0
  6
DASHED
100
AcDbLine
 10
-1.000000000000001
 20
-10.3022357019064
 30
0.0
 11
-1.000000000000005
 21
-32.94254973448215
 31
0.0
  0
LINE
  5
73
330
1F
100
AcDbEntity
  8
0
  6
DASHED
100
AcDbLine
 10
-1.000000000000001
 20
-9.802235701906404
 30
0.0
 11
-0.0000000000000018
 21
-9.802235701906404
 31
0.0
  0
POLYLINE
  5
74
330
1F
100
AcDbEntity
  8
0
  6
DASHED
100
AcDb3dPolyline
 66
     1
 10
0.0
 20
0.0
 30
0.0
 70
     8
  0
VERTEX
  5
75
330
74
100
AcDbEntity
  8
0
  6
DASHED
100
AcDbVertex
100
AcDb3dPolylineVertex
 10
-0.0000000000000042
 20
-12.1
 30
0.0
 70
    32
  0
VERTEX
  5
76
330
74
100
AcDbEntity
  8
0
  6
DASHED
100
AcDbVertex
100
AcDb3dPolylineVertex
 10
0.0013670066324049
 20
-12.09999065602779
 30
0.0
 70
    32
  0
VERTEX
  5
77
330
74
100
AcDbEntity
  8
0
  6
DASHED
100
AcDbVertex
100
AcDb3dPolylineVertex
 10
0.0041180187470217
 20
-12.09991517363043
 30
0.0
 70
    32
  0
VERTEX
  5
78
330
74
100
AcDbEntity
  8
0
  6
DASHED
100
AcDbVertex
100
AcDb3dPolylineVertex
 10
0.0068883118493635
 20
-12.09976247370563
 30
0.0
 70
    32
  0
VERTEX
  5
79
330
74
100
AcDbEntity
  8
0
  6
DASHED
100
AcDbVertex
100
AcDb3dPolylineVertex
 10
0.0082793898986287
 20
-12.09965666913411
 30
0.0
 70
    32
  0
VERTEX
  5
7A
330
74
100
AcDbEntity
  8
0
  6
DASHED
100
AcDbVertex
100
AcDb3dPolylineVertex
 10
0.0096737170662595
 20
-12.09953099616764
 30
0.0
 70
    32
  0
VERTEX
  5
7B
330
74
100
AcDbEntity
  8
0
  6
DASHED
100
AcDbVertex
100
AcDb3dPolylineVertex
 10
0.0124699767841979
 20
-12.09921945212004
 30
0.0
 70
    32
  0
VERTEX
  5
7C
330
74
100
AcDbEntity
  8
0
  6
DASHED
100
AcDbVertex
100
AcDb3dPolylineVertex
 10
0.0152727807140472
 20
-12.09882682919764
 30
0.0
 70
    32
  0
VERTEX
  5
7D
330
74
100
AcDbEntity
  8
0
  6
DASHED
100
AcDbVertex
100
AcDb3dPolylineVertex
 10
0.0180777998159884
 20
-12.09835239272032
 30
0.0
 70
    32
  0
VERTEX
  5
7E
330
74
100
AcDbEntity
  8
0
  6
DASHED
100
AcDbVertex
100
AcDb3dPolylineVertex
 10
0.0208807184892051
 20
-12.09779568290765
 30
0.0
 70
    32
  0
VERTEX
  5
7F
330
74
100
AcDbEntity
  8
0
  6
DASHED
100
AcDbVertex
100
AcDb3dPolylineVertex
 10
0.0236772653763697
 20
-12.09715650829613
 30
0.0
 70
    32
  0
VERTEX
  5
80
330
74
100
AcDbEntity
  8
0
  6
DASHED
100
AcDbVertex
100
AcDb3dPolylineVertex
 10
0.0250718340293461
 20
-12.09680600775987
 30
0.0
 70
    32
  0
VERTEX
  5
81
330
74
100
AcDbEntity
  8
0
  6
DASHED
100
AcDbVertex
100
AcDb3dPolylineVertex
 10
0.0264632430760327
 20
-12.09643493540154
 30
0.0
 70
    32
  0
VERTEX
  5
82
330
74
100
AcDbEntity
  8
0
  6
DASHED
100
AcDbVertex
100
AcDb3dPolylineVertex
 10
0.0292345569946094
 20
-12.09563127457756
 30
0.0
 70
    32
  0
VERTEX
  5
83
330
74
100
AcDbEntity
  8
0
  6
DASHED
100
AcDbVertex
100
AcDb3dPolylineVertex
 10
0.0319872435021418
 20
-12.09474606193998
 30
0.0
 70
    32
  0
VERTEX
  5
84
330
74
100
AcDbEntity
  8
0
  6
DASHED
100
AcDbVertex
100
AcDb3dPolylineVertex
 10
0.0347174974799354
 20
-12.09378003715466
 30
0.0
 70
    32
  0
VERTEX
  5
85
330
74
100
AcDbEntity
  8
0
  6
DASHED
100
AcDbVertex
100
AcDb3dPolylineVertex
 10
0.0374216992620371
 20
-12.09273411683055
 30
0.0
 70
    32
  0
VERTEX
  5
86
330
74
100
AcDbEntity
  8
0
  6
DASHED
100
AcDbVertex
100
AcDb3dPolylineVertex
 10
0.0400964398985958
 20
-12.09160936364509
 30
0.0
 70
    32
  0
VERTEX
  5
87
330
74
100
AcDbEntity
  8
0
  6
DASHED
100
AcDbVertex
100
AcDb3dPolylineVertex
 10
0.0414217481703849
 20
-12.09101779374666
 30
0.0
 70
    32
  0
VERTEX
  5
88
330
74
100
AcDbEntity
  8
0
  6
DASHED
100
AcDbVertex
100
AcDb3dPolylineVertex
 10
0.0427384760354904
 20
-12.09040698350329
 30
0.0
 70
    32
  0
VERTEX
  5
89
330
74
100
AcDbEntity
  8
0
  6
DASHED
100
AcDbVertex
100
AcDb3dPolylineVertex
 10
0.0453445498444204
 20
-12.08912840063306
 30
0.0
 70
    32
  0
VERTEX
  5
8A
330
74
100
AcDbEntity
  8
0
  6
DASHED
100
AcDbVertex
100
AcDb3dPolylineVertex
 10
0.0479113588685331
 20
-12.08777529089311
 30
0.0
 70
    32
  0
VERTEX
  5
8B
330
74
100
AcDbEntity
  8
0
  6
DASHED
100
AcDbVertex
100
AcDb3dPolylineVertex
 10
0.0491790040392145
 20
-12.08707138199036
 30
0.0
 70
    32
  0
VERTEX
  5
8C
330
74
100
AcDbEntity
  8
0
  6
DASHED
100
AcDbVertex
100
AcDb3dPolylineVertex
 10
0.0504355932094413
 20
-12.08634958562501
 30
0.0
 70
    32
  0
VERTEX
  5
8D
330
74
100
AcDbEntity
  8
0
  6
DASHED
100
AcDbVertex
100
AcDb3dPolylineVertex
 10
0.0529139713591394
 20
-12.0848534715554
 30
0.0
 70
    32
  0
VERTEX
  5
8E
330
74
100
AcDbEntity
  8
0
  6
DASHED
100
AcDbVertex
100
AcDb3dPolylineVertex
 10
0.0553432739356511
 20
-12.08328938725962
 30
0.0
 70
    32
  0
VERTEX
  5
8F
330
74
100
AcDbEntity
  8
0
  6
DASHED
100
AcDbVertex
100
AcDb3dPolylineVertex
 10
0.0565385406796173
 20
-12.08248268556381
 30
0.0
 70
    32
  0
VERTEX
  5
90
330
74
100
AcDbEntity
  8
0
  6
DASHED
100
AcDbVertex
100
AcDb3dPolylineVertex
 10
0.0577203754935458
 20
-12.08166001624347
 30
0.0
 70
    32
  0
VERTEX
  5
91
330
74
100
AcDbEntity
  8
0
  6
DASHED
100
AcDbVertex
100
AcDb3dPolylineVertex
 10
0.060042274589615
 20
-12.07996827659831
 30
0.0
 70
    32
  0
VERTEX
  5
92
330
74
100
AcDbEntity
  8
0
  6
DASHED
100
AcDbVertex
100
AcDb3dPolylineVertex
 10
0.0623061222776638
 20
-12.07821730707919
 30
0.0
 70
    32
  0
VERTEX
  5
93
330
74
100
AcDbEntity
  8
0
  6
DASHED
100
AcDbVertex
100
AcDb3dPolylineVertex
 10
0.0645092491855688
 20
-12.07641044934767
 30
0.0
 70
    32
  0
VERTEX
  5
94
330
74
100
AcDbEntity
  8
0
  6
DASHED
100
AcDbVertex
100
AcDb3dPolylineVertex
 10
0.0666491912942288
 20
-12.07455122601155
 30
0.0
 70
    32
  0
VERTEX
  5
95
330
74
100
AcDbEntity
  8
0
  6
DASHED
100
AcDbVertex
100
AcDb3dPolylineVertex
 10
0.0687237144919781
 20
-12.07264331398294
 30
0.0
 70
    32
  0
VERTEX
  5
96
330
74
100
AcDbEntity
  8
0
  6
DASHED
100
AcDbVertex
100
AcDb3dPolylineVertex
 10
0.0697358144754408
 20
-12.07167228320241
 30
0.0
 70
    32
  0
VERTEX
  5
97
330
74
100
AcDbEntity
  8
0
  6
DASHED
100
AcDbVertex
100
AcDb3dPolylineVertex
 10
0.0707308379208679
 20
-12.07069051256719
 30
0.0
 70
    32
  0
VERTEX
  5
98
330
74
100
AcDbEntity
  8
0
  6
DASHED
100
AcDbVertex
100
AcDb3dPolylineVertex
 10
0.0726737652678341
 20
-12.06869151215249
 30
0.0
 70
    32
  0
VERTEX
  5
99
330
74
100
AcDbEntity
  8
0
  6
DASHED
100
AcDbVertex
100
AcDb3dPolylineVertex
 10
0.0745783589781377
 20
-12.06661882896094
 30
0.0
 70
    32
  0
VERTEX
  5
9A
330
74
100
AcDbEntity
  8
0
  6
DASHED
100
AcDbVertex
100
AcDb3dPolylineVertex
 10
0.0764441981746563
 20
-12.06446925286858
 30
0.0
 70
    32
  0
VERTEX
  5
9B
330
74
100
AcDbEntity
  8
0
  6
DASHED
100
AcDbVertex
100
AcDb3dPolylineVertex
 10
0.078266105992561
 20
-12.06224481225581
 30
0.0
 70
    32
  0
VERTEX
  5
9C
330
74
100
AcDbEntity
  8
0
  6
DASHED
100
AcDbVertex
100
AcDb3dPolylineVertex
 10
0.0800390512435935
 20
-12.05994789634362
 30
0.0
 70
    32
  0
VERTEX
  5
9D
330
74
100
AcDbEntity
  8
0
  6
DASHED
100
AcDbVertex
100
AcDb3dPolylineVertex
 10
0.0809056414058772
 20
-12.0587730991926
 30
0.0
 70
    32
  0
VERTEX
  5
9E
330
74
100
AcDbEntity
  8
0
  6
DASHED
100
AcDbVertex
100
AcDb3dPolylineVertex
 10
0.0817581923446321
 20
-12.05758122944621
 30
0.0
 70
    32
  0
VERTEX
  5
9F
330
74
100
AcDbEntity
  8
0
  6
DASHED
100
AcDbVertex
100
AcDb3dPolylineVertex
 10
0.0834189163878603
 20
-12.05514784119686
 30
0.0
 70
    32
  0
VERTEX
  5
A0
330
74
100
AcDbEntity
  8
0
  6
DASHED
100
AcDbVertex
100
AcDb3dPolylineVertex
 10
0.0850168737406184
 20
-12.05265103208268
 30
0.0
 70
    32
  0
VERTEX
  5
A1
330
74
100
AcDbEntity
  8
0
  6
DASHED
100
AcDbVertex
100
AcDb3dPolylineVertex
 10
0.0865480083086139
 20
-12.05009433358985
 30
0.0
 70
    32
  0
VERTEX
  5
A2
330
74
100
AcDbEntity
  8
0
  6
DASHED
100
AcDbVertex
100
AcDb3dPolylineVertex
 10
0.0880085833440495
 20
-12.04748146225395
 30
0.0
 70
    32
  0
VERTEX
  5
A3
330
74
100
AcDbEntity
  8
0
  6
DASHED
100
AcDbVertex
100
AcDb3dPolylineVertex
 10
0.0893952024292676
 20
-12.04481626694215
 30
0.0
 70
    32
  0
VERTEX
  5
A4
330
74
100
AcDbEntity
  8
0
  6
DASHED
100
AcDbVertex
100
AcDb3dPolylineVertex
 10
0.0900598141183822
 20
-12.04346527212571
 30
0.0
 70
    32
  0
VERTEX
  5
A5
330
74
100
AcDbEntity
  8
0
  6
DASHED
100
AcDbVertex
100
AcDb3dPolylineVertex
 10
0.0907048250178725
 20
-12.04210266878093
 30
0.0
 70
    32
  0
VERTEX
  5
A6
330
74
100
AcDbEntity
  8
0
  6
DASHED
100
AcDbVertex
100
AcDb3dPolylineVertex
 10
0.091934775674286
 20
-12.03934459329715
 30
0.0
 70
    32
  0
VERTEX
  5
A7
330
74
100
AcDbEntity
  8
0
  6
DASHED
100
AcDbVertex
100
AcDb3dPolylineVertex
 10
0.0930827456685731
 20
-12.03654589523871
 30
0.0
 70
    32
  0
VERTEX
  5
A8
330
74
100
AcDbEntity
  8
0
  6
DASHED
100
AcDbVertex
100
AcDb3dPolylineVertex
 10
0.0941467481446957
 20
-12.03371038139474
 30
0.0
 70
    32
  0
VERTEX
  5
A9
330
74
100
AcDbEntity
  8
0
  6
DASHED
100
AcDbVertex
100
AcDb3dPolylineVertex
 10
0.0951249879601133
 20
-12.03084212485526
 30
0.0
 70
    32
  0
VERTEX
  5
AA
330
74
100
AcDbEntity
  8
0
  6
DASHED
100
AcDbVertex
100
AcDb3dPolylineVertex
 10
0.0960158602021805
 20
-12.02794556475784
 30
0.0
 70
    32
  0
VERTEX
  5
AB
330
74
100
AcDbEntity
  8
0
  6
DASHED
100
AcDbVertex
100
AcDb3dPolylineVertex
 10
0.0964280978943141
 20
-12.0264881470942
 30
0.0
 70
    32
  0
VERTEX
  5
AC
330
74
100
AcDbEntity
  8
0
  6
DASHED
100
AcDbVertex
100
AcDb3dPolylineVertex
 10
0.0968180061923785
 20
-12.02502546057382
 30
0.0
 70
    32
  0
VERTEX
  5
AD
330
74
100
AcDbEntity
  8
0
  6
DASHED
100
AcDbVertex
100
AcDb3dPolylineVertex
 10
0.0975303618957951
 20
-12.02208684016501
 30
0.0
 70
    32
  0
VERTEX
  5
AE
330
74
100
AcDbEntity
  8
0
  6
DASHED
100
AcDbVertex
100
AcDb3dPolylineVertex
 10
0.0981521976055647
 20
-12.01913494460921
 30
0.0
 70
    32
  0
VERTEX
  5
AF
330
74
100
AcDbEntity
  8
0
  6
DASHED
100
AcDbVertex
100
AcDb3dPolylineVertex
 10
0.0986831488903787
 20
-12.01617517001699
 30
0.0
 70
    32
  0
VERTEX
  5
B0
330
74
100
AcDbEntity
  8
0
  6
DASHED
100
AcDbVertex
100
AcDb3dPolylineVertex
 10
0.0991232387541728
 20
-12.01321300642861
 30
0.0
 70
    32
  0
VERTEX
  5
B1
330
74
100
AcDbEntity
  8
0
  6
DASHED
100
AcDbVertex
100
AcDb3dPolylineVertex
 10
0.0994728908899481
 20
-12.0102539737661
 30
0.0
 70
    32
  0
VERTEX
  5
B2
330
74
100
AcDbEntity
  8
0
  6
DASHED
100
AcDbVertex
100
AcDb3dPolylineVertex
 10
0.0996140459879032
 20
-12.00877734822821
 30
0.0
 70
    32
  0
VERTEX
  5
B3
330
74
100
AcDbEntity
  8
0
  6
DASHED
100
AcDbVertex
100
AcDb3dPolylineVertex
 10
0.0997329338205176
 20
-12.00730355472025
 30
0.0
 70
    32
  0
VERTEX
  5
B4
330
74
100
AcDbEntity
  8
0
  6
DASHED
100
AcDbVertex
100
AcDb3dPolylineVertex
 10
0.0999045956134068
 20
-12.00436712437664
 30
0.0
 70
    32
  0
VERTEX
  5
B5
330
74
100
AcDbEntity
  8
0
  6
DASHED
100
AcDbVertex
100
AcDb3dPolylineVertex
 10
0.0999894887407254
 20
-12.00144987632841
 30
0.0
 70
    32
  0
VERTEX
  5
B6
330
74
100
AcDbEntity
  8
0
  6
DASHED
100
AcDbVertex
100
AcDb3dPolylineVertex
 10
0.0999999999999967
 20
-12.0
 30
0.0
 70
    32
  0
VERTEX
  5
B7
330
74
100
AcDbEntity
  8
0
  6
DASHED
100
AcDbVertex
100
AcDb3dPolylineVertex
 10
0.0999894887407254
 20
-11.99855012367159
 30
0.0
 70
    32
  0
VERTEX
  5
B8
330
74
100
AcDbEntity
  8
0
  6
DASHED
100
AcDbVertex
100
AcDb3dPolylineVertex
 10
0.0999045956134069
 20
-11.99563287562337
 30
0.0
 70
    32
  0
VERTEX
  5
B9
330
74
100
AcDbEntity
  8
0
  6
DASHED
100
AcDbVertex
100
AcDb3dPolylineVertex
 10
0.0997329338205174
 20
-11.99269644527975
 30
0.0
 70
    32
  0
VERTEX
  5
BA
330
74
100
AcDbEntity
  8
0
  6
DASHED
100
AcDbVertex
100
AcDb3dPolylineVertex
 10
0.0996140459879032
 20
-11.99122265177179
 30
0.0
 70
    32
  0
VERTEX
  5
BB
330
74
100
AcDbEntity
  8
0
  6
DASHED
100
AcDbVertex
100
AcDb3dPolylineVertex
 10
0.0994728908899478
 20
-11.9897460262339
 30
0.0
 70
    32
  0
VERTEX
  5
BC
330
74
100
AcDbEntity
  8
0
  6
DASHED
100
AcDbVertex
100
AcDb3dPolylineVertex
 10
0.0991232387541728
 20
-11.98678699357139
 30
0.0
 70
    32
  0
VERTEX
  5
BD
330
74
100
AcDbEntity
  8
0
  6
DASHED
100
AcDbVertex
100
AcDb3dPolylineVertex
 10
0.0986831488903787
 20
-11.98382482998301
 30
0.0
 70
    32
  0
VERTEX
  5
BE
330
74
100
AcDbEntity
  8
0
  6
DASHED
100
AcDbVertex
100
AcDb3dPolylineVertex
 10
0.0981521976055643
 20
-11.98086505539079
 30
0.0
 70
    32
  0
VERTEX
  5
BF
330
74
100
AcDbEntity
  8
0
  6
DASHED
100
AcDbVertex
100
AcDb3dPolylineVertex
 10
0.0975303618957959
 20
-11.977913159835
 30
0.0
 70
    32
  0
VERTEX
  5
C0
330
74
100
AcDbEntity
  8
0
  6
DASHED
100
AcDbVertex
100
AcDb3dPolylineVertex
 10
0.096818006192379
 20
-11.97497453942618
 30
0.0
 70
    32
  0
VERTEX
  5
C1
330
74
100
AcDbEntity
  8
0
  6
DASHED
100
AcDbVertex
100
AcDb3dPolylineVertex
 10
0.0964280978943141
 20
-11.9735118529058
 30
0.0
 70
    32
  0
VERTEX
  5
C2
330
74
100
AcDbEntity
  8
0
  6
DASHED
100
AcDbVertex
100
AcDb3dPolylineVertex
 10
0.0960158602021806
 20
-11.97205443524216
 30
0.0
 70
    32
  0
VERTEX
  5
C3
330
74
100
AcDbEntity
  8
0
  6
DASHED
100
AcDbVertex
100
AcDb3dPolylineVertex
 10
0.095124987960113
 20
-11.96915787514474
 30
0.0
 70
    32
  0
VERTEX
  5
C4
330
74
100
AcDbEntity
  8
0
  6
DASHED
100
AcDbVertex
100
AcDb3dPolylineVertex
 10
0.0941467481446957
 20
-11.96628961860526
 30
0.0
 70
    32
  0
VERTEX
  5
C5
330
74
100
AcDbEntity
  8
0
  6
DASHED
100
AcDbVertex
100
AcDb3dPolylineVertex
 10
0.0930827456685737
 20
-11.96345410476129
 30
0.0
 70
    32
  0
VERTEX
  5
C6
330
74
100
AcDbEntity
  8
0
  6
DASHED
100
AcDbVertex
100
AcDb3dPolylineVertex
 10
0.091934775674286
 20
-11.96065540670285
 30
0.0
 70
    32
  0
VERTEX
  5
C7
330
74
100
AcDbEntity
  8
0
  6
DASHED
100
AcDbVertex
100
AcDb3dPolylineVertex
 10
0.0907048250178731
 20
-11.95789733121907
 30
0.0
 70
    32
  0
VERTEX
  5
C8
330
74
100
AcDbEntity
  8
0
  6
DASHED
100
AcDbVertex
100
AcDb3dPolylineVertex
 10
0.0900598141183817
 20
-11.95653472787429
 30
0.0
 70
    32
  0
VERTEX
  5
C9
330
74
100
AcDbEntity
  8
0
  6
DASHED
100
AcDbVertex
100
AcDb3dPolylineVertex
 10
0.0893952024292694
 20
-11.95518373305786
 30
0.0
 70
    32
  0
VERTEX
  5
CA
330
74
100
AcDbEntity
  8
0
  6
DASHED
100
AcDbVertex
100
AcDb3dPolylineVertex
 10
0.0880085833440495
 20
-11.95251853774605
 30
0.0
 70
    32
  0
VERTEX
  5
CB
330
74
100
AcDbEntity
  8
0
  6
DASHED
100
AcDbVertex
100
AcDb3dPolylineVertex
 10
0.0865480083086139
 20
-11.94990566641015
 30
0.0
 70
    32
  0
VERTEX
  5
CC
330
74
100
AcDbEntity
  8
0
  6
DASHED
100
AcDbVertex
100
AcDb3dPolylineVertex
 10
0.0850168737406196
 20
-11.94734896791732
 30
0.0
 70
    32
  0
VERTEX
  5
CD
330
74
100
AcDbEntity
  8
0
  6
DASHED
100
AcDbVertex
100
AcDb3dPolylineVertex
 10
0.0834189163878594
 20
-11.94485215880314
 30
0.0
 70
    32
  0
VERTEX
  5
CE
330
74
100
AcDbEntity
  8
0
  6
DASHED
100
AcDbVertex
100
AcDb3dPolylineVertex
 10
0.0817581923446327
 20
-11.94241877055379
 30
0.0
 70
    32
  0
VERTEX
  5
CF
330
74
100
AcDbEntity
  8
0
  6
DASHED
100
AcDbVertex
100
AcDb3dPolylineVertex
 10
0.0809056414058772
 20
-11.9412269008074
 30
0.0
 70
    32
  0
VERTEX
  5
D0
330
74
100
AcDbEntity
  8
0
  6
DASHED
100
AcDbVertex
100
AcDb3dPolylineVertex
 10
0.0800390512435946
 20
-11.94005210365639
 30
0.0
 70
    32
  0
VERTEX
  5
D1
330
74
100
AcDbEntity
  8
0
  6
DASHED
100
AcDbVertex
100
AcDb3dPolylineVertex
 10
0.0782661059925616
 20
-11.93775518774419
 30
0.0
 70
    32
  0
VERTEX
  5
D2
330
74
100
AcDbEntity
  8
0
  6
DASHED
100
AcDbVertex
100
AcDb3dPolylineVertex
 10
0.0764441981746546
 20
-11.93553074713141
 30
0.0
 70
    32
  0
VERTEX
  5
D3
330
74
100
AcDbEntity
  8
0
  6
DASHED
100
AcDbVertex
100
AcDb3dPolylineVertex
 10
0.0745783589781388
 20
-11.93338117103906
 30
0.0
 70
    32
  0
VERTEX
  5
D4
330
74
100
AcDbEntity
  8
0
  6
DASHED
100
AcDbVertex
100
AcDb3dPolylineVertex
 10
0.0726737652678361
 20
-11.93130848784751
 30
0.0
 70
    32
  0
VERTEX
  5
D5
330
74
100
AcDbEntity
  8
0
  6
DASHED
100
AcDbVertex
100
AcDb3dPolylineVertex
 10
0.0707308379208669
 20
-11.92930948743281
 30
0.0
 70
    32
  0
VERTEX
  5
D6
330
74
100
AcDbEntity
  8
0
  6
DASHED
100
AcDbVertex
100
AcDb3dPolylineVertex
 10
0.0697358144754421
 20
-11.92832771679759
 30
0.0
 70
    32
  0
VERTEX
  5
D7
330
74
100
AcDbEntity
  8
0
  6
DASHED
100
AcDbVertex
100
AcDb3dPolylineVertex
 10
0.0687237144919797
 20
-11.92735668601706
 30
0.0
 70
    32
  0
VERTEX
  5
D8
330
74
100
AcDbEntity
  8
0
  6
DASHED
100
AcDbVertex
100
AcDb3dPolylineVertex
 10
0.0666491912942288
 20
-11.92544877398845
 30
0.0
 70
    32
  0
VERTEX
  5
D9
330
74
100
AcDbEntity
  8
0
  6
DASHED
100
AcDbVertex
100
AcDb3dPolylineVertex
 10
0.0645092491855703
 20
-11.92358955065233
 30
0.0
 70
    32
  0
VERTEX
  5
DA
330
74
100
AcDbEntity
  8
0
  6
DASHED
100
AcDbVertex
100
AcDb3dPolylineVertex
 10
0.0623061222776638
 20
-11.92178269292081
 30
0.0
 70
    32
  0
VERTEX
  5
DB
330
74
100
AcDbEntity
  8
0
  6
DASHED
100
AcDbVertex
100
AcDb3dPolylineVertex
 10
0.0600422745896136
 20
-11.92003172340168
 30
0.0
 70
    32
  0
VERTEX
  5
DC
330
74
100
AcDbEntity
  8
0
  6
DASHED
100
AcDbVertex
100
AcDb3dPolylineVertex
 10
0.0577203754935435
 20
-11.91833998375653
 30
0.0
 70
    32
  0
VERTEX
  5
DD
330
74
100
AcDbEntity
  8
0
  6
DASHED
100
AcDbVertex
100
AcDb3dPolylineVertex
 10
0.0565385406796173
 20
-11.91751731443619
 30
0.0
 70
    32
  0
VERTEX
  5
DE
330
74
100
AcDbEntity
  8
0
  6
DASHED
100
AcDbVertex
100
AcDb3dPolylineVertex
 10
0.0553432739356511
 20
-11.91671061274038
 30
0.0
 70
    32
  0
VERTEX
  5
DF
330
74
100
AcDbEntity
  8
0
  6
DASHED
100
AcDbVertex
100
AcDb3dPolylineVertex
 10
0.0529139713591392
 20
-11.91514652844459
 30
0.0
 70
    32
  0
VERTEX
  5
E0
330
74
100
AcDbEntity
  8
0
  6
DASHED
100
AcDbVertex
100
AcDb3dPolylineVertex
 10
0.0504355932094414
 20
-11.91365041437499
 30
0.0
 70
    32
  0
VERTEX
  5
E1
330
74
100
AcDbEntity
  8
0
  6
DASHED
100
AcDbVertex
100
AcDb3dPolylineVertex
 10
0.0491790040392133
 20
-11.91292861800964
 30
0.0
 70
    32
  0
VERTEX
  5
E2
330
74
100
AcDbEntity
  8
0
  6
DASHED
100
AcDbVertex
100
AcDb3dPolylineVertex
 10
0.0479113588685339
 20
-11.91222470910689
 30
0.0
 70
    32
  0
VERTEX
  5
E3
330
74
100
AcDbEntity
  8
0
  6
DASHED
100
AcDbVertex
100
AcDb3dPolylineVertex
 10
0.0453445498444204
 20
-11.91087159936694
 30
0.0
 70
    32
  0
VERTEX
  5
E4
330
74
100
AcDbEntity
  8
0
  6
DASHED
100
AcDbVertex
100
AcDb3dPolylineVertex
 10
0.0427384760354889
 20
-11.90959301649671
 30
0.0
 70
    32
  0
VERTEX
  5
E5
330
74
100
AcDbEntity
  8
0
  6
DASHED
100
AcDbVertex
100
AcDb3dPolylineVertex
 10
0.041421748170385
 20
-11.90898220625334
 30
0.0
 70
    32
  0
VERTEX
  5
E6
330
74
100
AcDbEntity
  8
0
  6
DASHED
100
AcDbVertex
100
AcDb3dPolylineVertex
 10
0.0400964398985965
 20
-11.90839063635491
 30
0.0
 70
    32
  0
VERTEX
  5
E7
330
74
100
AcDbEntity
  8
0
  6
DASHED
100
AcDbVertex
100
AcDb3dPolylineVertex
 10
0.0374216992620384
 20
-11.90726588316945
 30
0.0
 70
    32
  0
VERTEX
  5
E8
330
74
100
AcDbEntity
  8
0
  6
DASHED
100
AcDbVertex
100
AcDb3dPolylineVertex
 10
0.0347174974799354
 20
-11.90621996284534
 30
0.0
 70
    32
  0
VERTEX
  5
E9
330
74
100
AcDbEntity
  8
0
  6
DASHED
100
AcDbVertex
100
AcDb3dPolylineVertex
 10
0.0319872435021425
 20
-11.90525393806002
 30
0.0
 70
    32
  0
VERTEX
  5
EA
330
74
100
AcDbEntity
  8
0
  6
DASHED
100
AcDbVertex
100
AcDb3dPolylineVertex
 10
0.0292345569946094
 20
-11.90436872542244
 30
0.0
 70
    32
  0
VERTEX
  5
EB
330
74
100
AcDbEntity
  8
0
  6
DASHED
100
AcDbVertex
100
AcDb3dPolylineVertex
 10
0.026463243076034
 20
-11.90356506459846
 30
0.0
 70
    32
  0
VERTEX
  5
EC
330
74
100
AcDbEntity
  8
0
  6
DASHED
100
AcDbVertex
100
AcDb3dPolylineVertex
 10
0.0250718340293461
 20
-11.90319399224013
 30
0.0
 70
    32
  0
VERTEX
  5
ED
330
74
100
AcDbEntity
  8
0
  6
DASHED
100
AcDbVertex
100
AcDb3dPolylineVertex
 10
0.0236772653763693
 20
-11.90284349170387
 30
0.0
 70
    32
  0
VERTEX
  5
EE
330
74
100
AcDbEntity
  8
0
  6
DASHED
100
AcDbVertex
100
AcDb3dPolylineVertex
 10
0.020880718489204
 20
-11.90220431709235
 30
0.0
 70
    32
  0
VERTEX
  5
EF
330
74
100
AcDbEntity
  8
0
  6
DASHED
100
AcDbVertex
100
AcDb3dPolylineVertex
 10
0.018077799815989
 20
-11.90164760727968
 30
0.0
 70
    32
  0
VERTEX
  5
F0
330
74
100
AcDbEntity
  8
0
  6
DASHED
100
AcDbVertex
100
AcDb3dPolylineVertex
 10
0.0152727807140465
 20
-11.90117317080236
 30
0.0
 70
    32
  0
VERTEX
  5
F1
330
74
100
AcDbEntity
  8
0
  6
DASHED
100
AcDbVertex
100
AcDb3dPolylineVertex
 10
0.0124699767841983
 20
-11.90078054787996
 30
0.0
 70
    32
  0
VERTEX
  5
F2
330
74
100
AcDbEntity
  8
0
  6
DASHED
100
AcDbVertex
100
AcDb3dPolylineVertex
 10
0.0096737170662599
 20
-11.90046900383236
 30
0.0
 70
    32
  0
VERTEX
  5
F3
330
74
100
AcDbEntity
  8
0
  6
DASHED
100
AcDbVertex
100
AcDb3dPolylineVertex
 10
0.008279389898629
 20
-11.90034333086589
 30
0.0
 70
    32
  0
VERTEX
  5
F4
330
74
100
AcDbEntity
  8
0
  6
DASHED
100
AcDbVertex
100
AcDb3dPolylineVertex
 10
0.0068883118493623
 20
-11.90023752629437
 30
0.0
 70
    32
  0
VERTEX
  5
F5
330
74
100
AcDbEntity
  8
0
  6
DASHED
100
AcDbVertex
100
AcDb3dPolylineVertex
 10
0.0041180187470217
 20
-11.90008482636957
 30
0.0
 70
    32
  0
VERTEX
  5
F6
330
74
100
AcDbEntity
  8
0
  6
DASHED
100
AcDbVertex
100
AcDb3dPolylineVertex
 10
0.0013670066324049
 20
-11.90000934397221
 30
0.0
 70
    32
  0
VERTEX
  5
F7
330
74
100
AcDbEntity
  8
0
  6
DASHED
100
AcDbVertex
100
AcDb3dPolylineVertex
 10
-0.0000000000000029
 20
-11.9
 30
0.0
 70
    32
  0
SEQEND
  5
F8
330
74
100
AcDbEntity
  8
0
  6
DASHED
  0
LINE
  5
F9
330
1F
100
AcDbEntity
  8
0
  6
DASHED
100
AcDbLine
 10
0.9999999999999921
 20
-42.5
 30
0.0
 11
-0.2960960188655948
 21
-42.5
 31
0.0
  0
LINE
  5
FA
330
1F
100
AcDbEntity
  8
0
  6
DASHED
100
AcDbLine
 10
1.000000000000014
 20
80.5
 30
0.0
 11
-0.2960960188655722
 21
80.5
 31
0.0
  0
LINE
  5
FB
330
1F
100
AcDbEntity
  8
0
  6
DASHED
100
AcDbLine
 10
0.0000000000000018
 20
10.03255190205888
 30
0.0
 11
-0.999999999999998
 21
10.03255190205888
 31
0.0
  0
LINE
  5
FC
330
1F
100
AcDbEntity
  8
0
  6
DASHED
100
AcDbLine
 10
-0.9999999999999978
 20
11.19305806387738
 30
0.0
 11
0.0000000000000028
 21
11.19305806387738
 31
0.0
  0
LINE
  5
FD
330
1F
100
AcDbEntity
  8
0
  6
DASHED
100
AcDbLine
 10
-0.999999999999998
 20
11.07804848663702
 30
0.0
 11
0.000000000000002
 21
11.07804848663702
 31
0.0
  0
LINE
  5
FE
330
1F
100
AcDbEntity
  8
0
  6
DASHED
100
AcDbLine
 10
-0.9999999999999985
 20
7.160002167576732
 30
0.0
 11
0.0000000000000013
 21
7.160002167576732
 31
0.0
  0
LINE
  5
FF
330
1F
100
AcDbEntity
  8
0
  6
DASHED
100
AcDbLine
 10
-0.9999999999999987
 20
6.497921408807107
 30
0.0
 11
0.0000000000000012
 21
6.497921408807107
 31
0.0
  0
LINE
  5
100
330
1F
100
AcDbEntity
  8
0
  6
DASHED
100
AcDbLine
 10
-0.9999999999999962
 20
20.80031620015247
 30
0.0
 11
0.0000000000000038
 21
20.80031620015247
 31
0.0
  0
LINE
  5
101
330
1F
100
AcDbEntity
  8
0
  6
DASHED
100
AcDbLine
 10
0.0000000000000071
 20
28.80031620015248
 30
0.0
 11
-0.9999999999999946
 21
28.80031620015248
 31
0.0
  0
LINE
  5
102
330
1F
100
AcDbEntity
  8
0
  6
DASHED
100
AcDbLine
 10
-0.9999999999999946
 20
28.80031620015247
 30
0.0
 11
-0.9999999999999989
 21
6.160002167576732
 31
0.0
  0
LINE
  5
103
330
1F
100
AcDbEntity
  8
0
  6
DASHED
100
AcDbLine
 10
-0.9999999999999946
 20
29.30031620015247
 30
0.0
 11
0.0000000000000054
 21
29.30031620015247
 31
0.0
  0
LINE
  5
104
330
1F
100
AcDbEntity
  8
0
  6
CENTER
100
AcDbLine
 10
-9.282499999999988
 20
76.0
 30
0.0
 11
-3.717499999999976
 21
76.0
 31
0.0
  0
LINE
  5
105
330
1F
100
AcDbEntity
  8
0
  6
CENTER
100
AcDbLine
 10
-6.499999999999989
 20
43.7825
 30
0.0
 11
-6.49999999999999
 21
38.2175
 31
0.0
  0
LINE
  5
106
330
1F
100
AcDbEntity
  8
0
  6
CENTER
100
AcDbLine
 10
-9.282499999999989
 20
41.0
 30
0.0
 11
-3.717499999999991
 21
41.0
 31
0.0
  0
LINE
  5
107
330
1F
100
AcDbEntity
  8
0
  6
CENTER
100
AcDbLine
 10
-6.5
 20
-0.2174999999999982
 30
0.0
 11
-6.5
 21
-5.782499999999998
 31
0.0
  0
LINE
  5
108
330
1F
100
AcDbEntity
  8
0
  6
CENTER
100
AcDbLine
 10
-9.2825
 20
-2.999999999999998
 30
0.0
 11
-3.7175
 21
-2.999999999999999
 31
0.0
  0
LINE
  5
109
330
1F
100
AcDbEntity
  8
0
  6
CENTER
100
AcDbLine
 10
-9.282500000000007
 20
-38.0
 30
0.0
 11
-3.717500000000011
 21
-38.0
 31
0.0
  0
LINE
  5
10A
330
1F
100
AcDbEntity
  8
0
  6
CENTER
100
AcDbLine
 10
-3.899999999999986
 20
73.0
 30
0.0
 11
4.900000000000013
 21
73.0
 31
0.0
  0
LINE
  5
10B
330
1F
100
AcDbEntity
  8
0
  6
CENTER
100
AcDbLine
 10
-3.899999999999992
 20
38.0
 30
0.0
 11
4.900000000000007
 21
38.0
 31
0.0
  0
LINE
  5
10C
330
1F
100
AcDbEntity
  8
0
  6
CENTER
100
AcDbLine
 10
-3.900000000000006
 20
-35.0
 30
0.0
 11
4.899999999999994
 21
-35.0
 31
0.0
  0
LINE
  5
10D
330
1F
100
AcDbEntity
  8
0
  6
CENTER
100
AcDbLine
 10
-3.9
 20
0.0000000000000007
 30
0.0
 11
4.9
 21
-0.0000000000000009
 31
0.0
  0
LINE
  5
10E
330
1F
100
AcDbEntity
  8
0
  6
CENTER
100
AcDbLine
 10
-6.500000000000002
 20
-30.62500000000003
 30
0.0
 11
-6.500000000000006
 21
-46.375
 31
0.0
  0
LINE
  5
10F
330
1F
100
AcDbEntity
  8
0
  6
CENTER
100
AcDbLine
 10
-14.37499999999999
 20
-38.50000000000001
 30
0.0
 11
1.37499999999998
 21
-38.50000000000001
 31
0.0
  0
LINE
  5
110
330
1F
100
AcDbEntity
  8
0
  6
CENTER
100
AcDbLine
 10
-6.499999999999982
 20
84.375
 30
0.0
 11
-6.499999999999984
 21
68.62500000000003
 31
0.0
  0
LINE
  5
111
330
1F
100
AcDbEntity
  8
0
  6
CENTER
100
AcDbLine
 10
-14.37499999999996
 20
76.50000000000002
 30
0.0
 11
1.374999999999994
 21
76.50000000000002
 31
0.0
  0
LINE
  5
112
330
1F
100
AcDbEntity
  8
0
  6
Continuous
100
AcDbLine
 10
1.000000000000015
 20
82.50103388767888
 30
0.0
 11
0.0000000000000152
 21
82.50103388767888
 31
0.0
  0
LINE
  5
113
330
1F
100
AcDbEntity
  8
0
  6
Continuous
100
AcDbLine
 10
-0.0000000000000082
 20
-44.5010338876789
 30
0.0
 11
0.9999999999999918
 21
-44.5010338876789
 31
0.0
  0
LINE
  5
114
330
1F
100
AcDbEntity
  8
0
  6
Continuous
100
AcDbLine
 10
0.0000000000000149
 20
81.23657181921061
 30
0.0
 11
1.000000000000014
 21
81.23657181921061
 31
0.0
  0
LINE
  5
115
330
1F
100
AcDbEntity
  8
0
  6
Continuous
100
AcDbLine
 10
0.0000000000000144
 20
78.30848594921571
 30
0.0
 11
1.000000000000014
 21
78.30848594921571
 31
0.0
  0
LINE
  5
116
330
1F
100
AcDbEntity
  8
0
  6
Continuous
100
AcDbLine
 10
0.0000000000000134
 20
73.00000000000001
 30
0.0
 11
1.000000000000013
 21
73.00000000000001
 31
0.0
  0
LINE
  5
117
330
1F
100
AcDbEntity
  8
0
  6
Continuous
100
AcDbLine
 10
0.0000000000000152
 20
82.50103388767888
 30
0.0
 11
-0.0000000000000082
 21
-44.50103388767889
 31
0.0
  0
LINE
  5
118
330
1F
100
AcDbEntity
  8
0
  6
Continuous
100
AcDbLine
 10
-0.0000000000000064
 20
-35.00000000000001
 30
0.0
 11
0.9999999999999936
 21
-35.00000000000001
 31
0.0
  0
LINE
  5
119
330
1F
100
AcDbEntity
  8
0
  6
Continuous
100
AcDbLine
 10
0.9999999999999918
 20
-44.50103388767889
 30
0.0
 11
1.000000000000015
 21
82.50103388767888
 31
0.0
  0
LINE
  5
11A
330
1F
100
AcDbEntity
  8
0
  6
Continuous
100
AcDbLine
 10
-0.2960960188655722
 20
80.5
 30
0.0
 11
-0.2960960188655948
 21
-42.5
 31
0.0
  0
LINE
  5
11B
330
1F
100
AcDbEntity
  8
0
  6
Continuous
100
AcDbLine
 10
-0.2960960188655722
 20
80.5
 30
0.0
 11
0.0000000000000152
 21
80.5
 31
0.0
  0
LINE
  5
11C
330
1F
100
AcDbEntity
  8
0
  6
Continuous
100
AcDbLine
 10
-0.2960960188655948
 20
-42.5
 30
0.0
 11
-0.0000000000000074
 21
-42.5
 31
0.0
  0
LINE
  5
11D
330
1F
100
AcDbEntity
  8
0
  6
Continuous
100
AcDbLine
 10
-0.9999999999999909
 20
49.53223570190639
 30
0.0
 11
-0.2960960188655779
 21
49.53223570190639
 31
0.0
  0
LINE
  5
11E
330
1F
100
AcDbEntity
  8
0
  6
Continuous
100
AcDbLine
 10
-0.9999999999999873
 20
68.79999999999999
 30
0.0
 11
-0.9999999999999909
 21
49.53223570190639
 31
0.0
  0
LINE
  5
11F
330
1F
100
AcDbEntity
  8
0
  6
Continuous
100
AcDbLine
 10
-0.9999999999999873
 20
68.79999999999999
 30
0.0
 11
-0.2960960188655743
 21
68.79999999999999
 31
0.0
  0
ARC
  5
120
330
1F
100
AcDbEntity
  8
0
  6
Continuous
100
AcDbCircle
 10
-6.500000000000007
 20
-38.5
 30
0.0
 40
7.5
100
AcDbArc
 50
180.0
 51
327.7690473644979
  0
LINE
  5
121
330
1F
100
AcDbEntity
  8
0
  6
Continuous
100
AcDbLine
 10
-14.00000000000001
 20
-38.5
 30
0.0
 11
-13.99999999999997
 21
76.5
 31
0.0
  0
ARC
  5
122
330
1F
100
AcDbEntity
  8
0
  6
Continuous
100
AcDbCircle
 10
-6.499999999999977
 20
76.5
 30
0.0
 40
7.499999999999997
100
AcDbArc
 50
32.23095263550207
 51
180.0
  0
LINE
  5
123
330
1F
100
AcDbEntity
  8
0
  6
Continuous
100
AcDbLine
 10
-1.000000000000005
 20
-29.07
 30
0.0
 11
-0.2960960188655923
 21
-29.07
 31
0.0
  0
LINE
  5
124
330
1F
100
AcDbEntity
  8
0
  6
Continuous
100
AcDbLine
 10
-1.000000000000001
 20
-9.802235701906404
 30
0.0
 11
-1.000000000000005
 21
-29.07
 31
0.0
  0
LINE
  5
125
330
1F
100
AcDbEntity
  8
0
  6
Continuous
100
AcDbLine
 10
-1.000000000000001
 20
-9.802235701906404
 30
0.0
 11
-0.2960960188655887
 21
-9.802235701906404
 31
0.0
  0
LINE
  5
126
330
1F
100
AcDbEntity
  8
0
  6
Continuous
100
AcDbLine
 10
-0.999999999999998
 20
10.03255190205888
 30
0.0
 11
-0.2960960188655851
 21
10.03255190205888
 31
0.0
  0
LINE
  5
127
330
1F
100
AcDbEntity
  8
0
  6
Continuous
100
AcDbLine
 10
-0.9999999999999946
 20
29.30031620015247
 30
0.0
 11
-0.999999999999998
 21
10.03255190205888
 31
0.0
  0
LINE
  5
128
330
1F
100
AcDbEntity
  8
0
  6
Continuous
100
AcDbLine
 10
-0.9999999999999946
 20
29.30031620015247
 30
0.0
 11
-0.2960960188655815
 21
29.30031620015247
 31
0.0
  0
CIRCLE
  5
129
330
1F
100
AcDbEntity
  8
0
  6
Continuous
100
AcDbCircle
 10
-6.499999999999982
 20
76.0
 30
0.0
 40
2.650000000000006
  0
CIRCLE
  5
12A
330
1F
100
AcDbEntity
  8
0
  6
Continuous
100
AcDbCircle
 10
-6.49999999999999
 20
41.0
 30
0.0
 40
2.649999999999999
  0
CIRCLE
  5
12B
330
1F
100
AcDbEntity
  8
0
  6
Continuous
100
AcDbCircle
 10
-6.5
 20
-2.999999999999998
 30
0.0
 40
2.649999999999999
  0
CIRCLE
  5
12C
330
1F
100
AcDbEntity
  8
0
  6
Continuous
100
AcDbCircle
 10
-6.500000000000009
 20
-38.0
 30
0.0
 40
2.649999999999999
  0
ENDSEC
  0
SECTION
  2
OBJECTS
  0
DICTIONARY
  5
C
330
0
100
AcDbDictionary
281
     1
  3
ACAD_CIP_PREVIOUS_PRODUCT_INFO
350
174
  3
ACAD_COLOR
350
16C
  3
ACAD_GROUP
350
D
  3
ACAD_LAYOUT
350
1A
  3
ACAD_MATERIAL
350
3B
  3
ACAD_MLEADERSTYLE
350
151
  3
ACAD_MLINESTYLE
350
17
  3
ACAD_PLOTSETTINGS
350
19
  3
ACAD_PLOTSTYLENAME
350
160
  3
ACAD_SCALELIST
350
12D
  3
ACAD_TABLESTYLE
350
16D
  3
ACAD_VISUALSTYLE
350
2A
  3
ACDB_RECOMPOSE_DATA
350
29B
  3
ACDBVARIABLEDICTIONARY
350
14F
  3
DWGPROPS
350
29C
  0
DICTIONARY
  5
17B
330
10
100
AcDbDictionary
280
     1
281
     1
  3
ADSK_XREC_LAYER_RECONCILED
360
17C
  0
XRECORD
  5
174
102
{ACAD_REACTORS
330
C
102
}
330
C
100
AcDbXrecord
280
     1
300
ACD
300
2012
300
85730ACD_2012_0F
  0
DICTIONARY
  5
16C
102
{ACAD_REACTORS
330
C
102
}
330
C
100
AcDbDictionary
281
     1
  0
DICTIONARY
  5
D
102
{ACAD_REACTORS
330
C
102
}
330
C
100
AcDbDictionary
281
     1
  0
DICTIONARY
  5
1A
102
{ACAD_REACTORS
330
C
102
}
330
C
100
AcDbDictionary
281
     1
  3
Layout1
350
171
  3
Model
350
170
  0
DICTIONARY
  5
3B
102
{ACAD_REACTORS
330
C
102
}
330
C
100
AcDbDictionary
281
     1
  3
BYBLOCK
350
3D
  3
BYLAYER
350
3C
  3
GLOBAL
350
3E
  0
DICTIONARY
  5
151
102
{ACAD_REACTORS
330
C
102
}
330
C
100
AcDbDictionary
281
     1
  3
Standard
350
16F
  0
DICTIONARY
  5
17
102
{ACAD_REACTORS
330
C
102
}
330
C
100
AcDbDictionary
281
     1
  3
STANDARD
350
18
  0
DICTIONARY
  5
19
102
{ACAD_REACTORS
330
C
102
}
330
C
100
AcDbDictionary
281
     1
  0
ACDBDICTIONARYWDFLT
  5
160
102
{ACAD_REACTORS
330
C
102
}
330
C
100
AcDbDictionary
281
     1
  3
Normal
350
161
100
AcDbDictionaryWithDefault
340
161
  0
DICTIONARY
  5
12D
102
{ACAD_REACTORS
330
C
102
}
330
C
100
AcDbDictionary
281
     1
  3
A0
350
12E
  3
A1
350
12F
  3
A2
350
130
  3
A3
350
131
  3
A4
350
132
  3
A5
350
133
  3
A6
350
134
  3
A7
350
135
  3
A8
350
136
  3
A9
350
137
  3
B0
350
138
  3
B1
350
139
  3
B2
350
13A
  3
B3
350
13B
  3
B4
350
13C
  3
B5
350
13D
  3
B6
350
13E
  3
B7
350
13F
  3
B8
350
140
  3
B9
350
141
  3
C0
350
142
  3
C1
350
143
  3
C2
350
144
  3
C3
350
145
  3
C4
350
146
  3
C5
350
147
  3
C6
350
148
  3
C7
350
149
  3
C8
350
14A
  3
C9
350
14B
  3
D0
350
14C
  3
D1
350
14D
  3
D2
350
14E
  0
DICTIONARY
  5
16D
102
{ACAD_REACTORS
330
C
102
}
330
C
100
AcDbDictionary
281
     1
  3
Standard
350
16E
  0
DICTIONARY
  5
2A
102
{ACAD_REACTORS
330
C
102
}
330
C
100
AcDbDictionary
281
     1
  3
2DWIREFRAME
350
2F
  3
3D_HIDDEN
350
31
  3
3DWIREFRAME
350
30
  3
BASIC
350
32
  3
BRIGHTEN
350
36
  3
COLORCHANGE
350
3A
  3
CONCEPTUAL
350
34
  3
DIM
350
35
  3
EdgeColorOff
350
16B
  3
FACEPATTERN
350
39
  3
FLAT
350
2B
  3
FLATWITHEDGES
350
2C
  3
GOURAUD
350
2D
  3
GOURAUDWITHEDGES
350
2E
  3
Hidden
350
163
  3
JitterOff
350
169
  3
LINEPATTERN
350
38
  3
OverhangOff
350
16A
  3
REALISTIC
350
33
  3
Shaded
350
168
  3
Shaded with edges
350
167
  3
Shades of Gray
350
164
  3
Sketchy
350
165
  3
THICKEN
350
37
  3
Wireframe
350
162
  3
X-Ray
350
166
  0
XRECORD
  5
29B
102
{ACAD_REACTORS
330
C
102
}
330
C
100
AcDbXrecord
280
     1
 90
        1
330
16E
  0
DICTIONARY
  5
14F
102
{ACAD_REACTORS
330
C
102
}
330
C
100
AcDbDictionary
281
     1
  3
CANNOSCALE
350
154
  3
CMLEADERSTYLE
350
17E
  3
CTABLESTYLE
350
17D
  3
DIMASSOC
350
155
  3
HIDETEXT
350
156
  3
INDEXCTL
350
180
  3
PSOLHEIGHT
350
182
  3
PSOLWIDTH
350
181
  3
SORTENTS
350
17F
  3
XCLIPFRAME
350
183
  0
XRECORD
  5
29C
102
{ACAD_REACTORS
330
C
102
}
330
C
100
AcDbXrecord
280
     1
  1
DWGPROPS COOKIE
  2

  3

  4

  6
File was created by Cadenas
  7

  8
Vijay
  9

300
=
301
=
302
=
303
=
304
=
305
=
306
=
307
=
308
=
309
=
 40
0.0076765162037037
 41
2456343.837685185
 42
2456343.654143091
  1

 90
        0
  0
XRECORD
  5
17C
102
{ACAD_REACTORS
330
17B
102
}
330
17B
100
AcDbXrecord
280
     1
290
     1
  0
LAYOUT
  5
171
102
{ACAD_XDICTIONARY
360
2D5
102
}
102
{ACAD_REACTORS
330
1A
102
}
330
1A
100
AcDbPlotSettings
  1

  2
Canon iR2525/2530 UFRII LT
  4

  6

 40
0.0
 41
0.0
 42
0.0
 43
0.0
 44
0.0
 45
0.0
 46
0.0
 47
0.0
 48
0.0
 49
0.0
140
0.0
141
0.0
142
1.0
143
1.0
 70
   688
 72
     0
 73
     0
 74
     5
  7

 75
    16
147
1.0
148
0.0
149
0.0
100
AcDbLayout
  1
Layout1
 70
     1
 71
     1
 10
-100.0
 20
-100.0
 11
100.0
 21
100.0
 12
0.0
 22
0.0
 32
0.0
 14
-1000.0
 24
-1000.0
 34
0.0
 15
1000.0
 25
1000.0
 35
0.0
146
0.0
 13
0.0
 23
0.0
 33
0.0
 16
1.0
 26
0.0
 36
0.0
 17
0.0
 27
1.0
 37
0.0
 76
     0
330
1B
  0
LAYOUT
  5
170
102
{ACAD_XDICTIONARY
360
2D3
102
}
102
{ACAD_REACTORS
330
1A
102
}
330
1A
100
AcDbPlotSettings
  1

  2
Canon iR2525/2530 UFRII LT
  4

  6

 40
0.0
 41
0.0
 42
0.0
 43
0.0
 44
0.0
 45
0.0
 46
0.0
 47
0.0
 48
0.0
 49
0.0
140
0.0
141
0.0
142
1.0
143
1.0
 70
  1712
 72
     0
 73
     0
 74
     0
  7

 75
     0
147
1.0
148
0.0
149
0.0
100
AcDbLayout
  1
Model
 70
     1
 71
     0
 10
0.0
 20
0.0
 11
12.0
 21
9.0
 12
0.0
 22
0.0
 32
0.0
 14
0.0
 24
0.0
 34
0.0
 15
0.0
 25
0.0
 35
0.0
146
0.0
 13
0.0
 23
0.0
 33
0.0
 16
1.0
 26
0.0
 36
0.0
 17
0.0
 27
1.0
 37
0.0
 76
     0
330
1F
331
29
  0
MATERIAL
  5
3D
102
{ACAD_XDICTIONARY
360
15A
102
}
102
{ACAD_REACTORS
330
3B
102
}
330
3B
100
AcDbMaterial
  1
BYBLOCK
  0
MATERIAL
  5
3C
102
{ACAD_XDICTIONARY
360
158
102
}
102
{ACAD_REACTORS
330
3B
102
}
330
3B
100
AcDbMaterial
  1
BYLAYER
  0
MATERIAL
  5
3E
102
{ACAD_XDICTIONARY
360
15C
102
}
102
{ACAD_REACTORS
330
3B
102
}
330
3B
100
AcDbMaterial
  1
GLOBAL
  0
MLEADERSTYLE
  5
16F
102
{ACAD_REACTORS
330
151
102
}
330
151
100
AcDbMLeaderStyle
170
     2
171
     1
172
     0
 90
        2
 40
0.0
 41
0.0
173
     1
 91
-1056964608
340
14
 92
       -2
290
     1
 42
0.09
291
     1
 43
0.36
  3
Standard
 44
0.18
300

342
11
174
     1
178
     6
175
     1
176
     0
 93
-1056964608
 45
0.18
292
     0
297
     0
 46
0.18
 94
-1056964608
 47
1.0
 49
1.0
140
1.0
293
     1
141
0.0
294
     1
177
     0
142
1.0
295
     0
296
     0
143
0.125
1001
ACAD_MLEADERVER
1070
     2
  0
MLINESTYLE
  5
18
102
{ACAD_REACTORS
330
17
102
}
330
17
100
AcDbMlineStyle
  2
STANDARD
 70
     0
  3

 62
   256
 51
90.0
 52
90.0
 71
     2
 49
0.5
 62
   256
  6
BYLAYER
 49
-0.5
 62
   256
  6
BYLAYER
  0
ACDBPLACEHOLDER
  5
161
102
{ACAD_REACTORS
330
160
102
}
330
160
  0
SCALE
  5
12E
102
{ACAD_REACTORS
330
12D
102
}
330
12D
100
AcDbScale
 70
     0
300
1:1
140
1.0
141
1.0
290
     1
  0
SCALE
  5
12F
102
{ACAD_REACTORS
330
12D
102
}
330
12D
100
AcDbScale
 70
     0
300
1:2
140
1.0
141
2.0
290
     0
  0
SCALE
  5
130
102
{ACAD_REACTORS
330
12D
102
}
330
12D
100
AcDbScale
 70
     0
300
1:4
140
1.0
141
4.0
290
     0
  0
SCALE
  5
131
102
{ACAD_REACTORS
330
12D
102
}
330
12D
100
AcDbScale
 70
     0
300
1:5
140
1.0
141
5.0
290
     0
  0
SCALE
  5
132
102
{ACAD_REACTORS
330
12D
102
}
330
12D
100
AcDbScale
 70
     0
300
1:8
140
1.0
141
8.0
290
     0
  0
SCALE
  5
133
102
{ACAD_REACTORS
330
12D
102
}
330
12D
100
AcDbScale
 70
     0
300
1:10
140
1.0
141
10.0
290
     0
  0
SCALE
  5
134
102
{ACAD_REACTORS
330
12D
102
}
330
12D
100
AcDbScale
 70
     0
300
1:16
140
1.0
141
16.0
290
     0
  0
SCALE
  5
135
102
{ACAD_REACTORS
330
12D
102
}
330
12D
100
AcDbScale
 70
     0
300
1:20
140
1.0
141
20.0
290
     0
  0
SCALE
  5
136
102
{ACAD_REACTORS
330
12D
102
}
330
12D
100
AcDbScale
 70
     0
300
1:30
140
1.0
141
30.0
290
     0
  0
SCALE
  5
137
102
{ACAD_REACTORS
330
12D
102
}
330
12D
100
AcDbScale
 70
     0
300
1:40
140
1.0
141
40.0
290
     0
  0
SCALE
  5
138
102
{ACAD_REACTORS
330
12D
102
}
330
12D
100
AcDbScale
 70
     0
300
1:50
140
1.0
141
50.0
290
     0
  0
SCALE
  5
139
102
{ACAD_REACTORS
330
12D
102
}
330
12D
100
AcDbScale
 70
     0
300
1:100
140
1.0
141
100.0
290
     0
  0
SCALE
  5
13A
102
{ACAD_REACTORS
330
12D
102
}
330
12D
100
AcDbScale
 70
     0
300
2:1
140
2.0
141
1.0
290
     0
  0
SCALE
  5
13B
102
{ACAD_REACTORS
330
12D
102
}
330
12D
100
AcDbScale
 70
     0
300
4:1
140
4.0
141
1.0
290
     0
  0
SCALE
  5
13C
102
{ACAD_REACTORS
330
12D
102
}
330
12D
100
AcDbScale
 70
     0
300
8:1
140
8.0
141
1.0
290
     0
  0
SCALE
  5
13D
102
{ACAD_REACTORS
330
12D
102
}
330
12D
100
AcDbScale
 70
     0
300
10:1
140
10.0
141
1.0
290
     0
  0
SCALE
  5
13E
102
{ACAD_REACTORS
330
12D
102
}
330
12D
100
AcDbScale
 70
     0
300
100:1
140
100.0
141
1.0
290
     0
  0
SCALE
  5
13F
102
{ACAD_REACTORS
330
12D
102
}
330
12D
100
AcDbScale
 70
     0
300
1/128" = 1'-0"
140
0.0078125
141
12.0
290
     0
  0
SCALE
  5
140
102
{ACAD_REACTORS
330
12D
102
}
330
12D
100
AcDbScale
 70
     0
300
1/64" = 1'-0"
140
0.015625
141
12.0
290
     0
  0
SCALE
  5
141
102
{ACAD_REACTORS
330
12D
102
}
330
12D
100
AcDbScale
 70
     0
300
1/32" = 1'-0"
140
0.03125
141
12.0
290
     0
  0
SCALE
  5
142
102
{ACAD_REACTORS
330
12D
102
}
330
12D
100
AcDbScale
 70
     0
300
1/16" = 1'-0"
140
0.0625
141
12.0
290
     0
  0
SCALE
  5
143
102
{ACAD_REACTORS
330
12D
102
}
330
12D
100
AcDbScale
 70
     0
300
3/32" = 1'-0"
140
0.09375
141
12.0
290
     0
  0
SCALE
  5
144
102
{ACAD_REACTORS
330
12D
102
}
330
12D
100
AcDbScale
 70
     0
300
1/8" = 1'-0"
140
0.125
141
12.0
290
     0
  0
SCALE
  5
145
102
{ACAD_REACTORS
330
12D
102
}
330
12D
100
AcDbScale
 70
     0
300
3/16" = 1'-0"
140
0.1875
141
12.0
290
     0
  0
SCALE
  5
146
102
{ACAD_REACTORS
330
12D
102
}
330
12D
100
AcDbScale
 70
     0
300
1/4" = 1'-0"
140
0.25
141
12.0
290
     0
  0
SCALE
  5
147
102
{ACAD_REACTORS
330
12D
102
}
330
12D
100
AcDbScale
 70
     0
300
3/8" = 1'-0"
140
0.375
141
12.0
290
     0
  0
SCALE
  5
148
102
{ACAD_REACTORS
330
12D
102
}
330
12D
100
AcDbScale
 70
     0
300
1/2" = 1'-0"
140
0.5
141
12.0
290
     0
  0
SCALE
  5
149
102
{ACAD_REACTORS
330
12D
102
}
330
12D
100
AcDbScale
 70
     0
300
3/4" = 1'-0"
140
0.75
141
12.0
290
     0
  0
SCALE
  5
14A
102
{ACAD_REACTORS
330
12D
102
}
330
12D
100
AcDbScale
 70
     0
300
1" = 1'-0"
140
1.0
141
12.0
290
     0
  0
SCALE
  5
14B
102
{ACAD_REACTORS
330
12D
102
}
330
12D
100
AcDbScale
 70
     0
300
1-1/2" = 1'-0"
140
1.5
141
12.0
290
     0
  0
SCALE
  5
14C
102
{ACAD_REACTORS
330
12D
102
}
330
12D
100
AcDbScale
 70
     0
300
3" = 1'-0"
140
3.0
141
12.0
290
     0
  0
SCALE
  5
14D
102
{ACAD_REACTORS
330
12D
102
}
330
12D
100
AcDbScale
 70
     0
300
6" = 1'-0"
140
6.0
141
12.0
290
     0
  0
SCALE
  5
14E
102
{ACAD_REACTORS
330
12D
102
}
330
12D
100
AcDbScale
 70
     0
300
1'-0" = 1'-0"
140
12.0
141
12.0
290
     0
  0
TABLESTYLE
  5
16E
102
{ACAD_XDICTIONARY
360
299
102
}
102
{ACAD_REACTORS
330
16D
102
}
330
16D
100
AcDbTableStyle
  3
Standard
 70
     0
 71
     0
 40
0.06
 41
0.06
280
     0
281
     0
  7
STANDARD
140
0.18
170
     2
 62
     0
 63
     7
283
     0
274
    -2
284
     1
 64
     0
275
    -2
285
     1
 65
     0
276
    -2
286
     1
 66
     0
277
    -2
287
     1
 67
     0
278
    -2
288
     1
 68
     0
279
    -2
289
     1
 69
     0
  7
STANDARD
140
0.25
170
     5
 62
     0
 63
     7
283
     0
274
    -2
284
     1
 64
     0
275
    -2
285
     1
 65
     0
276
    -2
286
     1
 66
     0
277
    -2
287
     1
 67
     0
278
    -2
288
     1
 68
     0
279
    -2
289
     1
 69
     0
  7
STANDARD
140
0.18
170
     5
 62
     0
 63
     7
283
     0
274
    -2
284
     1
 64
     0
275
    -2
285
     1
 65
     0
276
    -2
286
     1
 66
     0
277
    -2
287
     1
 67
     0
278
    -2
288
     1
 68
     0
279
    -2
289
     1
 69
     0
  0
VISUALSTYLE
  5
2F
102
{ACAD_XDICTIONARY
360
2A5
102
}
102
{ACAD_REACTORS
330
2A
102
}
330
2A
100
AcDbVisualStyle
  2
2dWireframe
 70
     4
 71
     0
 72
     2
 73
     0
 90
        0
 40
-0.6
 41
-30.0
 62
     5
 63
     7
 74
     1
 91
        4
 64
     7
 65
   257
 75
     1
175
     1
 42
1.0
 92
        0
 66
   257
 43
1.0
 76
     1
 77
     6
 78
     2
 67
     7
 79
     5
170
     0
171
     0
290
     0
174
     0
 93
        1
 44
0.0
173
     0
291
     0
 45
0.0
1001
ACAD
1000
AcDbSavedByObjectVersion
1070
     0
  0
VISUALSTYLE
  5
31
102
{ACAD_XDICTIONARY
360
2A9
102
}
102
{ACAD_REACTORS
330
2A
102
}
330
2A
100
AcDbVisualStyle
  2
3D Hidden
 70
     6
 71
     1
 72
     2
 73
     2
 90
        0
 40
-0.6
 41
-30.0
 62
     5
 63
     7
 74
     2
 91
        2
 64
     7
 65
   257
 75
     2
175
     1
 42
40.0
 92
        0
 66
   257
 43
1.0
 76
     1
 77
     6
 78
     2
 67
     7
 79
     3
170
     0
171
     0
290
     0
174
     0
 93
        1
 44
0.0
173
     0
291
     0
 45
0.0
1001
ACAD
1000
AcDbSavedByObjectVersion
1070
     0
  0
VISUALSTYLE
  5
30
102
{ACAD_XDICTIONARY
360
2A7
102
}
102
{ACAD_REACTORS
330
2A
102
}
330
2A
100
AcDbVisualStyle
  2
3dWireframe
 70
     5
 71
     0
 72
     2
 73
     0
 90
        0
 40
-0.6
 41
-30.0
 62
     5
 63
     7
 74
     1
 91
        4
 64
     7
 65
   257
 75
     1
175
     1
 42
1.0
 92
        0
 66
   257
 43
1.0
 76
     1
 77
     6
 78
     2
 67
     7
 79
     5
170
     0
171
     0
290
     0
174
     0
 93
        1
 44
0.0
173
     0
291
     0
 45
0.0
1001
ACAD
1000
AcDbSavedByObjectVersion
1070
     0
  0
VISUALSTYLE
  5
32
102
{ACAD_XDICTIONARY
360
2AB
102
}
102
{ACAD_REACTORS
330
2A
102
}
330
2A
100
AcDbVisualStyle
  2
Basic
 70
     7
 71
     1
 72
     0
 73
     1
 90
        0
 40
-0.6
 41
-30.0
 62
     5
 63
     7
 74
     0
 91
        4
 64
     7
 65
   257
 75
     1
175
     1
 42
1.0
 92
        8
 66
     7
 43
1.0
 76
     1
 77
     6
 78
     2
 67
     7
 79
     5
170
     0
171
     0
290
     0
174
     0
 93
        1
 44
0.0
173
     0
291
     1
 45
0.0
1001
ACAD
1000
AcDbSavedByObjectVersion
1070
     0
  0
VISUALSTYLE
  5
36
102
{ACAD_XDICTIONARY
360
2B3
102
}
102
{ACAD_REACTORS
330
2A
102
}
330
2A
100
AcDbVisualStyle
  2
Brighten
 70
    12
 71
     2
 72
     2
 73
     0
 90
        0
 40
-0.6
 41
-30.0
 62
     5
 63
     7
 74
     1
 91
        4
 64
     7
 65
   257
 75
     1
175
     1
 42
1.0
 92
        8
 66
     7
 43
1.0
 76
     1
 77
     6
 78
     2
 67
     7
 79
     5
170
     0
171
     0
290
     0
174
     0
 93
        1
 44
50.0
173
     0
291
     1
 45
0.0
1001
ACAD
1000
AcDbSavedByObjectVersion
1070
     0
  0
VISUALSTYLE
  5
3A
102
{ACAD_XDICTIONARY
360
2BB
102
}
102
{ACAD_REACTORS
330
2A
102
}
330
2A
100
AcDbVisualStyle
  2
ColorChange
 70
    16
 71
     2
 72
     2
 73
     3
 90
        0
 40
-0.6
 41
-30.0
 62
     5
 63
     8
 74
     1
 91
        4
 64
     7
 65
   257
 75
     1
175
     1
 42
1.0
 92
        8
 66
     8
 43
1.0
 76
     1
 77
     6
 78
     2
 67
     7
 79
     5
170
     0
171
     0
290
     0
174
     0
 93
        1
 44
0.0
173
     0
291
     1
 45
0.0
1001
ACAD
1000
AcDbSavedByObjectVersion
1070
     0
  0
VISUALSTYLE
  5
34
102
{ACAD_XDICTIONARY
360
2AF
102
}
102
{ACAD_REACTORS
330
2A
102
}
330
2A
100
AcDbVisualStyle
  2
Conceptual
 70
     9
 71
     3
 72
     2
 73
     0
 90
        0
 40
-0.6
 41
-30.0
 62
     5
 63
     7
 74
     2
 91
        2
 64
     7
 65
   257
 75
     1
175
     1
 42
40.0
 92
        8
 66
     7
 43
1.0
 76
     1
 77
     6
 78
     2
 67
     7
 79
     3
170
     0
171
     0
290
     0
174
     0
 93
        1
 44
0.0
173
     0
291
     0
 45
0.0
1001
ACAD
1000
AcDbSavedByObjectVersion
1070
     0
  0
VISUALSTYLE
  5
35
102
{ACAD_XDICTIONARY
360
2B1
102
}
102
{ACAD_REACTORS
330
2A
102
}
330
2A
100
AcDbVisualStyle
  2
Dim
 70
    11
 71
     2
 72
     2
 73
     0
 90
        0
 40
-0.6
 41
-30.0
 62
     5
 63
     7
 74
     1
 91
        4
 64
     7
 65
   257
 75
     1
175
     1
 42
1.0
 92
        8
 66
     7
 43
1.0
 76
     1
 77
     6
 78
     2
 67
     7
 79
     5
170
     0
171
     0
290
     0
174
     0
 93
        1
 44
-50.0
173
     0
291
     1
 45
0.0
1001
ACAD
1000
AcDbSavedByObjectVersion
1070
     0
  0
VISUALSTYLE
  5
16B
102
{ACAD_XDICTIONARY
360
2CF
102
}
102
{ACAD_REACTORS
330
2A
102
}
330
2A
100
AcDbVisualStyle
  2
EdgeColorOff
 70
    22
 71
     2
 72
     2
 73
     0
 90
        0
 40
-0.6
 41
-30.0
 62
     5
 63
     7
 74
     1
 91
        4
 64
     7
 65
   257
 75
     1
175
     1
 42
1.0
 92
        8
 66
     7
 43
1.0
 76
     1
 77
     6
 78
     2
 67
     7
 79
     5
170
     0
171
     0
290
     0
174
     0
 93
        1
 44
0.0
173
     0
291
     1
 45
0.0
1001
ACAD
1000
AcDbSavedByObjectVersion
1070
     0
  0
VISUALSTYLE
  5
39
102
{ACAD_XDICTIONARY
360
2B9
102
}
102
{ACAD_REACTORS
330
2A
102
}
330
2A
100
AcDbVisualStyle
  2
Facepattern
 70
    15
 71
     2
 72
     2
 73
     0
 90
        0
 40
-0.6
 41
-30.0
 62
     5
 63
     7
 74
     1
 91
        4
 64
     7
 65
   257
 75
     1
175
     1
 42
1.0
 92
        8
 66
     7
 43
1.0
 76
     1
 77
     6
 78
     2
 67
     7
 79
     5
170
     0
171
     0
290
     0
174
     0
 93
        1
 44
0.0
173
     0
291
     1
 45
0.0
1001
ACAD
1000
AcDbSavedByObjectVersion
1070
     0
  0
VISUALSTYLE
  5
2B
102
{ACAD_XDICTIONARY
360
29D
102
}
102
{ACAD_REACTORS
330
2A
102
}
330
2A
100
AcDbVisualStyle
  2
Flat
 70
     0
 71
     2
 72
     1
 73
     1
 90
        2
 40
-0.6
 41
30.0
 62
     5
 63
     7
 74
     0
 91
        4
 64
     7
 65
   257
 75
     1
175
     1
 42
1.0
 92
        8
 66
     7
 43
1.0
 76
     1
 77
     6
 78
     2
 67
     7
 79
     5
170
     0
171
     0
290
     0
174
     0
 93
       13
 44
0.0
173
     0
291
     1
 45
0.0
1001
ACAD
1000
AcDbSavedByObjectVersion
1070
     0
  0
VISUALSTYLE
  5
2C
102
{ACAD_XDICTIONARY
360
29F
102
}
102
{ACAD_REACTORS
330
2A
102
}
330
2A
100
AcDbVisualStyle
  2
FlatWithEdges
 70
     1
 71
     2
 72
     1
 73
     1
 90
        2
 40
-0.6
 41
30.0
 62
     5
 63
     7
 74
     1
 91
        4
 64
     7
 65
   257
 75
     1
175
     1
 42
1.0
 92
        0
 66
   257
 43
1.0
 76
     1
 77
     6
 78
     2
 67
     7
 79
     5
170
     0
171
     0
290
     0
174
     0
 93
       13
 44
0.0
173
     0
291
     1
 45
0.0
1001
ACAD
1000
AcDbSavedByObjectVersion
1070
     0
  0
VISUALSTYLE
  5
2D
102
{ACAD_XDICTIONARY
360
2A1
102
}
102
{ACAD_REACTORS
330
2A
102
}
330
2A
100
AcDbVisualStyle
  2
Gouraud
 70
     2
 71
     2
 72
     2
 73
     1
 90
        2
 40
-0.6
 41
30.0
 62
     5
 63
     7
 74
     0
 91
        4
 64
     7
 65
   257
 75
     1
175
     1
 42
1.0
 92
        0
 66
     7
 43
1.0
 76
     1
 77
     6
 78
     2
 67
     7
 79
     5
170
     0
171
     0
290
     0
174
     0
 93
       13
 44
0.0
173
     0
291
     1
 45
0.0
1001
ACAD
1000
AcDbSavedByObjectVersion
1070
     0
  0
VISUALSTYLE
  5
2E
102
{ACAD_XDICTIONARY
360
2A3
102
}
102
{ACAD_REACTORS
330
2A
102
}
330
2A
100
AcDbVisualStyle
  2
GouraudWithEdges
 70
     3
 71
     2
 72
     2
 73
     1
 90
        2
 40
-0.6
 41
30.0
 62
     5
 63
     7
 74
     1
 91
        4
 64
     7
 65
   257
 75
     1
175
     1
 42
1.0
 92
        0
 66
   257
 43
1.0
 76
     1
 77
     6
 78
     2
 67
     7
 79
     5
170
     0
171
     0
290
     0
174
     0
 93
       13
 44
0.0
173
     0
291
     1
 45
0.0
1001
ACAD
1000
AcDbSavedByObjectVersion
1070
     0
  0
VISUALSTYLE
  5
163
102
{ACAD_XDICTIONARY
360
2BF
102
}
102
{ACAD_REACTORS
330
2A
102
}
330
2A
100
AcDbVisualStyle
  2
Hidden
 70
     6
 71
     1
 72
     2
 73
     2
 90
        0
 40
-0.6
 41
-30.0
 62
     5
 63
     7
 74
     2
 91
        2
 64
     7
 65
   257
 75
     2
175
     1
 42
40.0
 92
        0
 66
   257
 43
1.0
 76
     1
 77
     6
 78
     2
 67
     7
 79
     3
170
     0
171
     0
290
     0
174
     0
 93
        1
 44
0.0
173
     0
291
     0
 45
0.0
1001
ACAD
1000
AcDbSavedByObjectVersion
1070
     0
  0
VISUALSTYLE
  5
169
102
{ACAD_XDICTIONARY
360
2CB
102
}
102
{ACAD_REACTORS
330
2A
102
}
330
2A
100
AcDbVisualStyle
  2
JitterOff
 70
    20
 71
     2
 72
     2
 73
     0
 90
        0
 40
-0.6
 41
-30.0
 62
     5
 63
     7
 74
     1
 91
        4
 64
     7
 65
   257
 75
     1
175
     1
 42
1.0
 92
       10
 66
     7
 43
1.0
 76
     1
 77
     6
 78
     2
 67
     7
 79
     5
170
     0
171
     0
290
     0
174
     0
 93
        1
 44
0.0
173
     0
291
     1
 45
0.0
1001
ACAD
1000
AcDbSavedByObjectVersion
1070
     0
  0
VISUALSTYLE
  5
38
102
{ACAD_XDICTIONARY
360
2B7
102
}
102
{ACAD_REACTORS
330
2A
102
}
330
2A
100
AcDbVisualStyle
  2
Linepattern
 70
    14
 71
     2
 72
     2
 73
     0
 90
        0
 40
-0.6
 41
-30.0
 62
     5
 63
     7
 74
     1
 91
        4
 64
     7
 65
   257
 75
     7
175
     7
 42
1.0
 92
        8
 66
     7
 43
1.0
 76
     1
 77
     6
 78
     2
 67
     7
 79
     5
170
     0
171
     0
290
     0
174
     0
 93
        1
 44
0.0
173
     0
291
     1
 45
0.0
1001
ACAD
1000
AcDbSavedByObjectVersion
1070
     0
  0
VISUALSTYLE
  5
16A
102
{ACAD_XDICTIONARY
360
2CD
102
}
102
{ACAD_REACTORS
330
2A
102
}
330
2A
100
AcDbVisualStyle
  2
OverhangOff
 70
    21
 71
     2
 72
     2
 73
     0
 90
        0
 40
-0.6
 41
-30.0
 62
     5
 63
     7
 74
     1
 91
        4
 64
     7
 65
   257
 75
     1
175
     1
 42
1.0
 92
        9
 66
     7
 43
1.0
 76
     1
 77
     6
 78
     2
 67
     7
 79
     5
170
     0
171
     0
290
     0
174
     0
 93
        1
 44
0.0
173
     0
291
     1
 45
0.0
1001
ACAD
1000
AcDbSavedByObjectVersion
1070
     0
  0
VISUALSTYLE
  5
33
102
{ACAD_XDICTIONARY
360
2AD
102
}
102
{ACAD_REACTORS
330
2A
102
}
330
2A
100
AcDbVisualStyle
  2
Realistic
 70
     8
 71
     2
 72
     2
 73
     0
 90
        0
 40
-0.6
 41
-30.0
 62
     5
 63
     7
 74
     1
 91
        0
 64
     7
 65
   257
 75
     1
175
     1
 42
1.0
 92
        8
 66
     8
 43
1.0
 76
     1
 77
     6
 78
     2
 67
     7
 79
     5
170
     0
171
     0
290
     0
174
     0
 93
       13
 44
0.0
173
     0
291
     0
 45
0.0
1001
ACAD
1000
AcDbSavedByObjectVersion
1070
     0
  0
VISUALSTYLE
  5
168
102
{ACAD_XDICTIONARY
360
2C9
102
}
102
{ACAD_REACTORS
330
2A
102
}
330
2A
100
AcDbVisualStyle
  2
Shaded
 70
    27
 71
     2
 72
     2
 73
     1
 90
        2
 40
-0.6
 41
30.0
 62
     5
 63
     7
 74
     0
 91
        4
 64
     7
 65
   257
 75
     1
175
     1
 42
1.0
 92
        8
 66
   257
 43
1.0
 76
     1
 77
     6
 78
     2
 67
     8
 79
     3
170
     0
171
     0
290
     0
174
     0
 93
        5
 44
0.0
173
     0
291
     0
 45
0.0
1001
ACAD
1000
AcDbSavedByObjectVersion
1070
     0
  0
VISUALSTYLE
  5
167
102
{ACAD_XDICTIONARY
360
2C7
102
}
102
{ACAD_REACTORS
330
2A
102
}
330
2A
100
AcDbVisualStyle
  2
Shaded with edges
 70
    26
 71
     2
 72
     2
 73
     1
 90
        2
 40
-0.6
 41
30.0
 62
     5
 63
     7
 74
     1
 91
       10
 64
     7
 65
   257
 75
     2
175
     1
 42
1.0
 92
        8
 66
   257
 43
1.0
 76
     1
 77
     6
 78
     2
 67
     7
 79
     3
170
     0
171
     0
290
     0
174
     0
 93
        5
 44
0.0
173
     0
291
     0
 45
0.0
1001
ACAD
1000
AcDbSavedByObjectVersion
1070
     0
  0
VISUALSTYLE
  5
164
102
{ACAD_XDICTIONARY
360
2C1
102
}
102
{ACAD_REACTORS
330
2A
102
}
330
2A
100
AcDbVisualStyle
  2
Shades of Gray
 70
    23
 71
     2
 72
     2
 73
     3
 90
        0
 40
-0.6
 41
-30.0
 62
     5
 63
     7
 74
     2
 91
        2
 64
     7
 65
     7
 75
     1
175
     1
 42
40.0
 92
        8
 66
     7
 43
1.0
 76
     1
 77
     6
 78
     2
 67
     7
 79
     3
170
     0
171
     0
290
     0
174
     0
 93
        1
 44
0.0
173
     0
291
     0
 45
0.0
1001
ACAD
1000
AcDbSavedByObjectVersion
1070
     0
  0
VISUALSTYLE
  5
165
102
{ACAD_XDICTIONARY
360
2C3
102
}
102
{ACAD_REACTORS
330
2A
102
}
330
2A
100
AcDbVisualStyle
  2
Sketchy
 70
    24
 71
     1
 72
     2
 73
     2
 90
        0
 40
-0.6
 41
-30.0
 62
     5
 63
     7
 74
     2
 91
        2
 64
     7
 65
     7
 75
     1
175
     1
 42
40.0
 92
       11
 66
     7
 43
1.0
 76
     1
 77
     6
 78
     2
 67
     7
 79
     6
170
     0
171
     0
290
     0
174
     0
 93
        1
 44
0.0
173
     0
291
     0
 45
0.0
1001
ACAD
1000
AcDbSavedByObjectVersion
1070
     0
  0
VISUALSTYLE
  5
37
102
{ACAD_XDICTIONARY
360
2B5
102
}
102
{ACAD_REACTORS
330
2A
102
}
330
2A
100
AcDbVisualStyle
  2
Thicken
 70
    13
 71
     2
 72
     2
 73
     0
 90
        0
 40
-0.6
 41
-30.0
 62
     5
 63
     7
 74
     1
 91
        4
 64
     7
 65
   257
 75
     1
175
     1
 42
1.0
 92
       12
 66
     7
 43
1.0
 76
     1
 77
     6
 78
     2
 67
     7
 79
     5
170
     0
171
     0
290
     0
174
     0
 93
        1
 44
0.0
173
     0
291
     1
 45
0.0
1001
ACAD
1000
AcDbSavedByObjectVersion
1070
     0
  0
VISUALSTYLE
  5
162
102
{ACAD_XDICTIONARY
360
2BD
102
}
102
{ACAD_REACTORS
330
2A
102
}
330
2A
100
AcDbVisualStyle
  2
Wireframe
 70
     5
 71
     0
 72
     2
 73
     0
 90
        0
 40
-0.6
 41
-30.0
 62
     5
 63
     7
 74
     1
 91
        4
 64
     7
 65
   257
 75
     1
175
     1
 42
1.0
 92
        0
 66
   257
 43
1.0
 76
     1
 77
     6
 78
     2
 67
     7
 79
     3
170
     0
171
     0
290
     0
174
     0
 93
        1
 44
0.0
173
     0
291
     0
 45
0.0
1001
ACAD
1000
AcDbSavedByObjectVersion
1070
     0
  0
VISUALSTYLE
  5
166
102
{ACAD_XDICTIONARY
360
2C5
102
}
102
{ACAD_REACTORS
330
2A
102
}
330
2A
100
AcDbVisualStyle
  2
X-Ray
 70
    25
 71
     2
 72
     2
 73
     1
 90
        1
 40
0.5
 41
-30.0
 62
     5
 63
     7
 74
     1
 91
        0
 64
     7
 65
   257
 75
     1
175
     1
 42
1.0
 92
        8
 66
     7
 43
1.0
 76
     1
 77
     6
 78
     2
 67
     7
 79
     3
170
     0
171
     0
290
     0
174
     0
 93
       13
 44
0.0
173
     0
291
     0
 45
0.0
1001
ACAD
1000
AcDbSavedByObjectVersion
1070
     0
  0
DICTIONARYVAR
  5
154
102
{ACAD_REACTORS
330
14F
102
}
330
14F
100
DictionaryVariables
280
     0
  1
1:1
  0
DICTIONARYVAR
  5
17E
102
{ACAD_REACTORS
330
14F
102
}
330
14F
100
DictionaryVariables
280
     0
  1
STANDARD
  0
DICTIONARYVAR
  5
17D
102
{ACAD_REACTORS
330
14F
102
}
330
14F
100
DictionaryVariables
280
     0
  1
STANDARD
  0
DICTIONARYVAR
  5
155
102
{ACAD_REACTORS
330
14F
102
}
330
14F
100
DictionaryVariables
280
     0
  1
2
  0
DICTIONARYVAR
  5
156
102
{ACAD_REACTORS
330
14F
102
}
330
14F
100
DictionaryVariables
280
     0
  1
1
  0
DICTIONARYVAR
  5
180
102
{ACAD_REACTORS
330
14F
102
}
330
14F
100
DictionaryVariables
280
     0
  1
0
  0
DICTIONARYVAR
  5
182
102
{ACAD_REACTORS
330
14F
102
}
330
14F
100
DictionaryVariables
280
     0
  1
80.000000
  0
DICTIONARYVAR
  5
181
102
{ACAD_REACTORS
330
14F
102
}
330
14F
100
DictionaryVariables
280
     0
  1
5.000000
  0
DICTIONARYVAR
  5
17F
102
{ACAD_REACTORS
330
14F
102
}
330
14F
100
DictionaryVariables
280
     0
  1
127
  0
DICTIONARYVAR
  5
183
102
{ACAD_REACTORS
330
14F
102
}
330
14F
100
DictionaryVariables
280
     0
  1
2
  0
DICTIONARY
  5
2D5
330
171
100
AcDbDictionary
280
     1
281
     1
  3
ACAD_XREC_ROUNDTRIP
360
2D6
  0
DICTIONARY
  5
2D3
330
170
100
AcDbDictionary
280
     1
281
     1
  3
ACAD_XREC_ROUNDTRIP
360
2D4
  0
DICTIONARY
  5
15A
330
3D
100
AcDbDictionary
281
     1
  3
ACAD_XREC_ROUNDTRIP
350
15B
  0
DICTIONARY
  5
158
330
3C
100
AcDbDictionary
281
     1
  3
ACAD_XREC_ROUNDTRIP
350
159
  0
DICTIONARY
  5
15C
330
3E
100
AcDbDictionary
281
     1
  3
ACAD_XREC_ROUNDTRIP
350
15D
  0
DICTIONARY
  5
299
330
16E
100
AcDbDictionary
280
     1
281
     1
  3
ACAD_ROUNDTRIP_2008_TABLESTYLE_CELLSTYLEMAP
360
29A
  3
ACAD_XREC_ROUNDTRIP
360
2D1
  0
DICTIONARY
  5
2A5
330
2F
100
AcDbDictionary
280
     1
281
     1
  3
ACAD_XREC_ROUNDTRIP
360
2A6
  0
DICTIONARY
  5
2A9
330
31
100
AcDbDictionary
280
     1
281
     1
  3
ACAD_XREC_ROUNDTRIP
360
2AA
  0
DICTIONARY
  5
2A7
330
30
100
AcDbDictionary
280
     1
281
     1
  3
ACAD_XREC_ROUNDTRIP
360
2A8
  0
DICTIONARY
  5
2AB
330
32
100
AcDbDictionary
280
     1
281
     1
  3
ACAD_XREC_ROUNDTRIP
360
2AC
  0
DICTIONARY
  5
2B3
330
36
100
AcDbDictionary
280
     1
281
     1
  3
ACAD_XREC_ROUNDTRIP
360
2B4
  0
DICTIONARY
  5
2BB
330
3A
100
AcDbDictionary
280
     1
281
     1
  3
ACAD_XREC_ROUNDTRIP
360
2BC
  0
DICTIONARY
  5
2AF
330
34
100
AcDbDictionary
280
     1
281
     1
  3
ACAD_XREC_ROUNDTRIP
360
2B0
  0
DICTIONARY
  5
2B1
330
35
100
AcDbDictionary
280
     1
281
     1
  3
ACAD_XREC_ROUNDTRIP
360
2B2
  0
DICTIONARY
  5
2CF
330
16B
100
AcDbDictionary
280
     1
281
     1
  3
ACAD_XREC_ROUNDTRIP
360
2D0
  0
DICTIONARY
  5
2B9
330
39
100
AcDbDictionary
280
     1
281
     1
  3
ACAD_XREC_ROUNDTRIP
360
2BA
  0
DICTIONARY
  5
29D
330
2B
100
AcDbDictionary
280
     1
281
     1
  3
ACAD_XREC_ROUNDTRIP
360
29E
  0
DICTIONARY
  5
29F
330
2C
100
AcDbDictionary
280
     1
281
     1
  3
ACAD_XREC_ROUNDTRIP
360
2A0
  0
DICTIONARY
  5
2A1
330
2D
100
AcDbDictionary
280
     1
281
     1
  3
ACAD_XREC_ROUNDTRIP
360
2A2
  0
DICTIONARY
  5
2A3
330
2E
100
AcDbDictionary
280
     1
281
     1
  3
ACAD_XREC_ROUNDTRIP
360
2A4
  0
DICTIONARY
  5
2BF
330
163
100
AcDbDictionary
280
     1
281
     1
  3
ACAD_XREC_ROUNDTRIP
360
2C0
  0
DICTIONARY
  5
2CB
330
169
100
AcDbDictionary
280
     1
281
     1
  3
ACAD_XREC_ROUNDTRIP
360
2CC
  0
DICTIONARY
  5
2B7
330
38
100
AcDbDictionary
280
     1
281
     1
  3
ACAD_XREC_ROUNDTRIP
360
2B8
  0
DICTIONARY
  5
2CD
330
16A
100
AcDbDictionary
280
     1
281
     1
  3
ACAD_XREC_ROUNDTRIP
360
2CE
  0
DICTIONARY
  5
2AD
330
33
100
AcDbDictionary
280
     1
281
     1
  3
ACAD_XREC_ROUNDTRIP
360
2AE
  0
DICTIONARY
  5
2C9
330
168
100
AcDbDictionary
280
     1
281
     1
  3
ACAD_XREC_ROUNDTRIP
360
2CA
  0
DICTIONARY
  5
2C7
330
167
100
AcDbDictionary
280
     1
281
     1
  3
ACAD_XREC_ROUNDTRIP
360
2C8
  0
DICTIONARY
  5
2C1
330
164
100
AcDbDictionary
280
     1
281
     1
  3
ACAD_XREC_ROUNDTRIP
360
2C2
  0
DICTIONARY
  5
2C3
330
165
100
AcDbDictionary
280
     1
281
     1
  3
ACAD_XREC_ROUNDTRIP
360
2C4
  0
DICTIONARY
  5
2B5
330
37
100
AcDbDictionary
280
     1
281
     1
  3
ACAD_XREC_ROUNDTRIP
360
2B6
  0
DICTIONARY
  5
2BD
330
162
100
AcDbDictionary
280
     1
281
     1
  3
ACAD_XREC_ROUNDTRIP
360
2BE
  0
DICTIONARY
  5
2C5
330
166
100
AcDbDictionary
280
     1
281
     1
  3
ACAD_XREC_ROUNDTRIP
360
2C6
  0
XRECORD
  5
2D6
102
{ACAD_REACTORS
330
2D5
102
}
330
2D5
100
AcDbXrecord
280
     1
102
SHADEPLOT
 70
     0
102
SHADEPLOTRESLEVEL
 70
     2
102
SHADEPLOTCUSTOMDPI
 70
   300
  0
XRECORD
  5
2D4
102
{ACAD_REACTORS
330
2D3
102
}
330
2D3
100
AcDbXrecord
280
     1
102
SHADEPLOT
 70
     0
102
SHADEPLOTRESLEVEL
 70
     2
102
SHADEPLOTCUSTOMDPI
 70
   300
  0
XRECORD
  5
15B
102
{ACAD_REACTORS
330
15A
102
}
330
15A
100
AcDbXrecord
280
     1
102
MATERIAL
148
0.0
149
0.0
149
0.0
 93
        0
 94
      127
282
     0
 72
     1
 77
     1
171
     1
175
     1
179
     1
273
     0
  0
XRECORD
  5
159
102
{ACAD_REACTORS
330
158
102
}
330
158
100
AcDbXrecord
280
     1
102
MATERIAL
148
0.0
149
0.0
149
0.0
 93
        0
 94
      127
282
     0
 72
     1
 77
     1
171
     1
175
     1
179
     1
273
     0
  0
XRECORD
  5
15D
102
{ACAD_REACTORS
330
15C
102
}
330
15C
100
AcDbXrecord
280
     1
102
MATERIAL
148
0.0
149
0.0
149
0.0
 93
        0
 94
      127
282
     0
 72
     1
 77
     1
171
     1
175
     1
179
     1
273
     0
  0
CELLSTYLEMAP
  5
29A
102
{ACAD_REACTORS
330
299
102
}
330
299
100
AcDbCellStyleMap
 90
        3
300
CELLSTYLE
  1
TABLEFORMAT_BEGIN
 90
        5
170
     1
 91
        0
 92
    32768
 62
   257
 93
        1
300
CONTENTFORMAT
  1
CONTENTFORMAT_BEGIN
 90
        0
 91
        0
 92
      512
 93
        0
300

 40
0.0
140
1.0
 94
        5
 62
     0
340
11
144
0.25
309
CONTENTFORMAT_END
171
     0
 94
        0
309
TABLEFORMAT_END
  1
CELLSTYLE_BEGIN
 90
        1
 91
        1
300
_TITLE
309
CELLSTYLE_END
300
CELLSTYLE
  1
TABLEFORMAT_BEGIN
 90
        5
170
     1
 91
        0
 92
        0
 62
   257
 93
        1
300
CONTENTFORMAT
  1
CONTENTFORMAT_BEGIN
 90
        0
 91
        0
 92
      512
 93
        0
300

 40
0.0
140
1.0
 94
        5
 62
     0
340
11
144
0.18
309
CONTENTFORMAT_END
171
     0
 94
        0
309
TABLEFORMAT_END
  1
CELLSTYLE_BEGIN
 90
        2
 91
        1
300
_HEADER
309
CELLSTYLE_END
300
CELLSTYLE
  1
TABLEFORMAT_BEGIN
 90
        5
170
     1
 91
        0
 92
        0
 62
   257
 93
        1
300
CONTENTFORMAT
  1
CONTENTFORMAT_BEGIN
 90
        0
 91
        0
 92
      512
 93
        0
300

 40
0.0
140
1.0
 94
        2
 62
     0
340
11
144
0.18
309
CONTENTFORMAT_END
171
     0
 94
        0
309
TABLEFORMAT_END
  1
CELLSTYLE_BEGIN
 90
        3
 91
        2
300
_DATA
309
CELLSTYLE_END
  0
XRECORD
  5
2D1
102
{ACAD_REACTORS
330
299
102
}
330
299
100
AcDbXrecord
280
     1
102
ACAD_ROUNDTRIP_PRE2007_TABLESTYLE
 90
      512
 91
        0
  1

 92
      512
 93
        0
  2

 94
      512
 95
        0
  3

  0
XRECORD
  5
2A6
102
{ACAD_REACTORS
330
2A5
102
}
330
2A5
100
AcDbXrecord
280
     1
102
RTVSPropertyOp0
 70
     1
102
RTVSPropertyOp1
 70
     1
102
RTVSPropertyOp2
 70
     1
102
RTVSPropertyOp3
 70
     1
102
RTVSPropertyOp4
 70
     1
102
RTVSPropertyOp5
 70
     1
102
RTVSPropertyOp6
 70
     1
102
RTVSPropertyOp7
 70
     1
102
RTVSPropertyOp8
 70
     1
102
RTVSPropertyOp9
 70
     1
102
RTVSPropertyOp10
 70
     1
102
RTVSPropertyOp11
 70
     1
102
RTVSPropertyOp12
 70
     1
102
RTVSPropertyOp13
 70
     1
102
RTVSPropertyOp14
 70
     1
102
RTVSPropertyOp15
 70
     1
102
RTVSPropertyOp16
 70
     1
102
RTVSPropertyOp17
 70
     1
102
RTVSPropertyOp18
 70
     1
102
RTVSPropertyOp19
 70
     1
102
RTVSPropertyOp20
 70
     1
102
RTVSPropertyOp21
 70
     1
102
RTVSPropertyOp22
 70
     1
102
RTVSPropertyOp23
 70
     1
102
RTVSPropertyOp24
 70
     1
102
RTVSPropertyOp25
 70
     1
102
RTVSPropertyOp26
 70
     1
102
RTVSPropertyOp27
 70
     1
102
RTVSPropertyOp28
 70
     1
102
RTVSPropertyOp29
 70
     1
102
RTVSPropertyOp30
 70
     1
102
RTVSPropertyOp31
 70
     1
102
RTVSPropertyOp32
 70
     1
  0
XRECORD
  5
2AA
102
{ACAD_REACTORS
330
2A9
102
}
330
2A9
100
AcDbXrecord
280
     1
102
RTVSPropertyOp0
 70
     1
102
RTVSPropertyOp1
 70
     1
102
RTVSPropertyOp2
 70
     1
102
RTVSPropertyOp3
 70
     1
102
RTVSPropertyOp4
 70
     1
102
RTVSPropertyOp5
 70
     1
102
RTVSPropertyOp6
 70
     1
102
RTVSPropertyOp7
 70
     1
102
RTVSPropertyOp8
 70
     1
102
RTVSPropertyOp9
 70
     1
102
RTVSPropertyOp10
 70
     1
102
RTVSPropertyOp11
 70
     1
102
RTVSPropertyOp12
 70
     1
102
RTVSPropertyOp13
 70
     1
102
RTVSPropertyOp14
 70
     1
102
RTVSPropertyOp15
 70
     1
102
RTVSPropertyOp16
 70
     1
102
RTVSPropertyOp17
 70
     1
102
RTVSPropertyOp18
 70
     1
102
RTVSPropertyOp19
 70
     1
102
RTVSPropertyOp20
 70
     1
102
RTVSPropertyOp21
 70
     1
102
RTVSPropertyOp22
 70
     1
102
RTVSPropertyOp23
 70
     1
102
RTVSPropertyOp24
 70
     1
102
RTVSPropertyOp25
 70
     1
102
RTVSPropertyOp26
 70
     1
102
RTVSPropertyOp27
 70
     1
102
RTVSPropertyOp28
 70
     1
102
RTVSPropertyOp29
 70
     1
102
RTVSPropertyOp30
 70
     1
102
RTVSPropertyOp31
 70
     1
102
RTVSPropertyOp32
 70
     1
  0
XRECORD
  5
2A8
102
{ACAD_REACTORS
330
2A7
102
}
330
2A7
100
AcDbXrecord
280
     1
102
RTVSPropertyOp0
 70
     1
102
RTVSPropertyOp1
 70
     1
102
RTVSPropertyOp2
 70
     1
102
RTVSPropertyOp3
 70
     1
102
RTVSPropertyOp4
 70
     1
102
RTVSPropertyOp5
 70
     1
102
RTVSPropertyOp6
 70
     1
102
RTVSPropertyOp7
 70
     1
102
RTVSPropertyOp8
 70
     1
102
RTVSPropertyOp9
 70
     1
102
RTVSPropertyOp10
 70
     1
102
RTVSPropertyOp11
 70
     1
102
RTVSPropertyOp12
 70
     1
102
RTVSPropertyOp13
 70
     1
102
RTVSPropertyOp14
 70
     1
102
RTVSPropertyOp15
 70
     1
102
RTVSPropertyOp16
 70
     1
102
RTVSPropertyOp17
 70
     1
102
RTVSPropertyOp18
 70
     1
102
RTVSPropertyOp19
 70
     1
102
RTVSPropertyOp20
 70
     1
102
RTVSPropertyOp21
 70
     1
102
RTVSPropertyOp22
 70
     1
102
RTVSPropertyOp23
 70
     1
102
RTVSPropertyOp24
 70
     1
102
RTVSPropertyOp25
 70
     1
102
RTVSPropertyOp26
 70
     1
102
RTVSPropertyOp27
 70
     1
102
RTVSPropertyOp28
 70
     1
102
RTVSPropertyOp29
 70
     1
102
RTVSPropertyOp30
 70
     1
102
RTVSPropertyOp31
 70
     1
102
RTVSPropertyOp32
 70
     1
  0
XRECORD
  5
2AC
102
{ACAD_REACTORS
330
2AB
102
}
330
2AB
100
AcDbXrecord
280
     1
102
RTVSPropertyOp0
 70
     1
102
RTVSPropertyOp1
 70
     1
102
RTVSPropertyOp2
 70
     1
102
RTVSPropertyOp3
 70
     1
102
RTVSPropertyOp4
 70
     1
102
RTVSPropertyOp5
 70
     1
102
RTVSPropertyOp6
 70
     1
102
RTVSPropertyOp7
 70
     1
102
RTVSPropertyOp8
 70
     1
102
RTVSPropertyOp9
 70
     1
102
RTVSPropertyOp10
 70
     1
102
RTVSPropertyOp11
 70
     1
102
RTVSPropertyOp12
 70
     1
102
RTVSPropertyOp13
 70
     1
102
RTVSPropertyOp14
 70
     1
102
RTVSPropertyOp15
 70
     1
102
RTVSPropertyOp16
 70
     1
102
RTVSPropertyOp17
 70
     1
102
RTVSPropertyOp18
 70
     1
102
RTVSPropertyOp19
 70
     1
102
RTVSPropertyOp20
 70
     1
102
RTVSPropertyOp21
 70
     1
102
RTVSPropertyOp22
 70
     1
102
RTVSPropertyOp23
 70
     1
102
RTVSPropertyOp24
 70
     1
102
RTVSPropertyOp25
 70
     1
102
RTVSPropertyOp26
 70
     1
102
RTVSPropertyOp27
 70
     1
102
RTVSPropertyOp28
 70
     1
102
RTVSPropertyOp29
 70
     1
102
RTVSPropertyOp30
 70
     1
102
RTVSPropertyOp31
 70
     1
102
RTVSPropertyOp32
 70
     1
  0
XRECORD
  5
2B4
102
{ACAD_REACTORS
330
2B3
102
}
330
2B3
100
AcDbXrecord
280
     1
102
RTVSPropertyOp0
 70
     1
102
RTVSPropertyOp1
 70
     1
102
RTVSPropertyOp2
 70
     1
102
RTVSPropertyOp3
 70
     1
102
RTVSPropertyOp4
 70
     1
102
RTVSPropertyOp5
 70
     1
102
RTVSPropertyOp6
 70
     1
102
RTVSPropertyOp7
 70
     1
102
RTVSPropertyOp8
 70
     1
102
RTVSPropertyOp9
 70
     1
102
RTVSPropertyOp10
 70
     1
102
RTVSPropertyOp11
 70
     1
102
RTVSPropertyOp12
 70
     1
102
RTVSPropertyOp13
 70
     1
102
RTVSPropertyOp14
 70
     1
102
RTVSPropertyOp15
 70
     1
102
RTVSPropertyOp16
 70
     1
102
RTVSPropertyOp17
 70
     1
102
RTVSPropertyOp18
 70
     1
102
RTVSPropertyOp19
 70
     1
102
RTVSPropertyOp20
 70
     1
102
RTVSPropertyOp21
 70
     1
102
RTVSPropertyOp22
 70
     1
102
RTVSPropertyOp23
 70
     1
102
RTVSPropertyOp24
 70
     1
102
RTVSPropertyOp25
 70
     1
102
RTVSPropertyOp26
 70
     1
102
RTVSPropertyOp27
 70
     1
102
RTVSPropertyOp28
 70
     1
102
RTVSPropertyOp29
 70
     1
102
RTVSPropertyOp30
 70
     1
102
RTVSPropertyOp31
 70
     1
102
RTVSPropertyOp32
 70
     1
  0
XRECORD
  5
2BC
102
{ACAD_REACTORS
330
2BB
102
}
330
2BB
100
AcDbXrecord
280
     1
102
RTVSPropertyOp0
 70
     1
102
RTVSPropertyOp1
 70
     1
102
RTVSPropertyOp2
 70
     1
102
RTVSPropertyOp3
 70
     1
102
RTVSPropertyOp4
 70
     1
102
RTVSPropertyOp5
 70
     1
102
RTVSPropertyOp6
 70
     1
102
RTVSPropertyOp7
 70
     1
102
RTVSPropertyOp8
 70
     1
102
RTVSPropertyOp9
 70
     1
102
RTVSPropertyOp10
 70
     1
102
RTVSPropertyOp11
 70
     1
102
RTVSPropertyOp12
 70
     1
102
RTVSPropertyOp13
 70
     1
102
RTVSPropertyOp14
 70
     1
102
RTVSPropertyOp15
 70
     1
102
RTVSPropertyOp16
 70
     1
102
RTVSPropertyOp17
 70
     1
102
RTVSPropertyOp18
 70
     1
102
RTVSPropertyOp19
 70
     1
102
RTVSPropertyOp20
 70
     1
102
RTVSPropertyOp21
 70
     1
102
RTVSPropertyOp22
 70
     1
102
RTVSPropertyOp23
 70
     1
102
RTVSPropertyOp24
 70
     1
102
RTVSPropertyOp25
 70
     1
102
RTVSPropertyOp26
 70
     1
102
RTVSPropertyOp27
 70
     1
102
RTVSPropertyOp28
 70
     1
102
RTVSPropertyOp29
 70
     1
102
RTVSPropertyOp30
 70
     1
102
RTVSPropertyOp31
 70
     1
102
RTVSPropertyOp32
 70
     1
  0
XRECORD
  5
2B0
102
{ACAD_REACTORS
330
2AF
102
}
330
2AF
100
AcDbXrecord
280
     1
102
RTVSPropertyOp0
 70
     1
102
RTVSPropertyOp1
 70
     1
102
RTVSPropertyOp2
 70
     1
102
RTVSPropertyOp3
 70
     1
102
RTVSPropertyOp4
 70
     1
102
RTVSPropertyOp5
 70
     1
102
RTVSPropertyOp6
 70
     1
102
RTVSPropertyOp7
 70
     1
102
RTVSPropertyOp8
 70
     1
102
RTVSPropertyOp9
 70
     1
102
RTVSPropertyOp10
 70
     1
102
RTVSPropertyOp11
 70
     1
102
RTVSPropertyOp12
 70
     1
102
RTVSPropertyOp13
 70
     1
102
RTVSPropertyOp14
 70
     1
102
RTVSPropertyOp15
 70
     1
102
RTVSPropertyOp16
 70
     1
102
RTVSPropertyOp17
 70
     1
102
RTVSPropertyOp18
 70
     1
102
RTVSPropertyOp19
 70
     1
102
RTVSPropertyOp20
 70
     1
102
RTVSPropertyOp21
 70
     1
102
RTVSPropertyOp22
 70
     1
102
RTVSPropertyOp23
 70
     1
102
RTVSPropertyOp24
 70
     1
102
RTVSPropertyOp25
 70
     1
102
RTVSPropertyOp26
 70
     1
102
RTVSPropertyOp27
 70
     1
102
RTVSPropertyOp28
 70
     1
102
RTVSPropertyOp29
 70
     1
102
RTVSPropertyOp30
 70
     1
102
RTVSPropertyOp31
 70
     1
102
RTVSPropertyOp32
 70
     1
  0
XRECORD
  5
2B2
102
{ACAD_REACTORS
330
2B1
102
}
330
2B1
100
AcDbXrecord
280
     1
102
RTVSPropertyOp0
 70
     1
102
RTVSPropertyOp1
 70
     1
102
RTVSPropertyOp2
 70
     1
102
RTVSPropertyOp3
 70
     1
102
RTVSPropertyOp4
 70
     1
102
RTVSPropertyOp5
 70
     1
102
RTVSPropertyOp6
 70
     1
102
RTVSPropertyOp7
 70
     1
102
RTVSPropertyOp8
 70
     1
102
RTVSPropertyOp9
 70
     1
102
RTVSPropertyOp10
 70
     1
102
RTVSPropertyOp11
 70
     1
102
RTVSPropertyOp12
 70
     1
102
RTVSPropertyOp13
 70
     1
102
RTVSPropertyOp14
 70
     1
102
RTVSPropertyOp15
 70
     1
102
RTVSPropertyOp16
 70
     1
102
RTVSPropertyOp17
 70
     1
102
RTVSPropertyOp18
 70
     1
102
RTVSPropertyOp19
 70
     1
102
RTVSPropertyOp20
 70
     1
102
RTVSPropertyOp21
 70
     1
102
RTVSPropertyOp22
 70
     1
102
RTVSPropertyOp23
 70
     1
102
RTVSPropertyOp24
 70
     1
102
RTVSPropertyOp25
 70
     1
102
RTVSPropertyOp26
 70
     1
102
RTVSPropertyOp27
 70
     1
102
RTVSPropertyOp28
 70
     1
102
RTVSPropertyOp29
 70
     1
102
RTVSPropertyOp30
 70
     1
102
RTVSPropertyOp31
 70
     1
102
RTVSPropertyOp32
 70
     1
  0
XRECORD
  5
2D0
102
{ACAD_REACTORS
330
2CF
102
}
330
2CF
100
AcDbXrecord
280
     1
102
RTVSPropertyOp0
 70
     0
102
RTVSPropertyOp1
 70
     0
102
RTVSPropertyOp2
 70
     0
102
RTVSPropertyOp3
 70
     0
102
RTVSPropertyOp4
 70
     0
102
RTVSPropertyOp5
 70
     0
102
RTVSPropertyOp6
 70
     0
102
RTVSPropertyOp7
 70
     0
102
RTVSPropertyOp8
 70
     0
102
RTVSPropertyOp9
 70
     0
102
RTVSPropertyOp10
 70
     0
102
RTVSPropertyOp11
 70
     0
102
RTVSPropertyOp12
 70
     0
102
RTVSPropertyOp13
 70
     0
102
RTVSPropertyOp14
 70
     2
102
RTVSPropertyOp15
 70
     0
102
RTVSPropertyOp16
 70
     0
102
RTVSPropertyOp17
 70
     0
102
RTVSPropertyOp18
 70
     0
102
RTVSPropertyOp19
 70
     0
102
RTVSPropertyOp20
 70
     0
102
RTVSPropertyOp21
 70
     0
102
RTVSPropertyOp22
 70
     0
102
RTVSPropertyOp23
 70
     0
102
RTVSPropertyOp24
 70
     0
102
RTVSPropertyOp25
 70
     0
102
RTVSPropertyOp26
 70
     0
102
RTVSPropertyOp27
 70
     0
102
RTVSPropertyOp28
 70
     0
102
RTVSPropertyOp29
 70
     0
102
RTVSPropertyOp30
 70
     0
102
RTVSPropertyOp31
 70
     0
102
RTVSPropertyOp32
 70
     0
  0
XRECORD
  5
2BA
102
{ACAD_REACTORS
330
2B9
102
}
330
2B9
100
AcDbXrecord
280
     1
102
RTVSPropertyOp0
 70
     1
102
RTVSPropertyOp1
 70
     1
102
RTVSPropertyOp2
 70
     1
102
RTVSPropertyOp3
 70
     1
102
RTVSPropertyOp4
 70
     1
102
RTVSPropertyOp5
 70
     1
102
RTVSPropertyOp6
 70
     1
102
RTVSPropertyOp7
 70
     1
102
RTVSPropertyOp8
 70
     1
102
RTVSPropertyOp9
 70
     1
102
RTVSPropertyOp10
 70
     1
102
RTVSPropertyOp11
 70
     1
102
RTVSPropertyOp12
 70
     1
102
RTVSPropertyOp13
 70
     1
102
RTVSPropertyOp14
 70
     1
102
RTVSPropertyOp15
 70
     1
102
RTVSPropertyOp16
 70
     1
102
RTVSPropertyOp17
 70
     1
102
RTVSPropertyOp18
 70
     1
102
RTVSPropertyOp19
 70
     1
102
RTVSPropertyOp20
 70
     1
102
RTVSPropertyOp21
 70
     1
102
RTVSPropertyOp22
 70
     1
102
RTVSPropertyOp23
 70
     1
102
RTVSPropertyOp24
 70
     1
102
RTVSPropertyOp25
 70
     1
102
RTVSPropertyOp26
 70
     1
102
RTVSPropertyOp27
 70
     1
102
RTVSPropertyOp28
 70
     1
102
RTVSPropertyOp29
 70
     1
102
RTVSPropertyOp30
 70
     1
102
RTVSPropertyOp31
 70
     1
102
RTVSPropertyOp32
 70
     1
  0
XRECORD
  5
29E
102
{ACAD_REACTORS
330
29D
102
}
330
29D
100
AcDbXrecord
280
     1
102
RTVSPropertyOp0
 70
     1
102
RTVSPropertyOp1
 70
     1
102
RTVSPropertyOp2
 70
     1
102
RTVSPropertyOp3
 70
     1
102
RTVSPropertyOp4
 70
     1
102
RTVSPropertyOp5
 70
     1
102
RTVSPropertyOp6
 70
     1
102
RTVSPropertyOp7
 70
     1
102
RTVSPropertyOp8
 70
     1
102
RTVSPropertyOp9
 70
     1
102
RTVSPropertyOp10
 70
     1
102
RTVSPropertyOp11
 70
     1
102
RTVSPropertyOp12
 70
     1
102
RTVSPropertyOp13
 70
     1
102
RTVSPropertyOp14
 70
     1
102
RTVSPropertyOp15
 70
     1
102
RTVSPropertyOp16
 70
     1
102
RTVSPropertyOp17
 70
     1
102
RTVSPropertyOp18
 70
     1
102
RTVSPropertyOp19
 70
     1
102
RTVSPropertyOp20
 70
     1
102
RTVSPropertyOp21
 70
     1
102
RTVSPropertyOp22
 70
     1
102
RTVSPropertyOp23
 70
     1
102
RTVSPropertyOp24
 70
     1
102
RTVSPropertyOp25
 70
     1
102
RTVSPropertyOp26
 70
     1
102
RTVSPropertyOp27
 70
     1
102
RTVSPropertyOp28
 70
     1
102
RTVSPropertyOp29
 70
     1
102
RTVSPropertyOp30
 70
     1
102
RTVSPropertyOp31
 70
     1
102
RTVSPropertyOp32
 70
     1
  0
XRECORD
  5
2A0
102
{ACAD_REACTORS
330
29F
102
}
330
29F
100
AcDbXrecord
280
     1
102
RTVSPropertyOp0
 70
     1
102
RTVSPropertyOp1
 70
     1
102
RTVSPropertyOp2
 70
     1
102
RTVSPropertyOp3
 70
     1
102
RTVSPropertyOp4
 70
     1
102
RTVSPropertyOp5
 70
     1
102
RTVSPropertyOp6
 70
     1
102
RTVSPropertyOp7
 70
     1
102
RTVSPropertyOp8
 70
     1
102
RTVSPropertyOp9
 70
     1
102
RTVSPropertyOp10
 70
     1
102
RTVSPropertyOp11
 70
     1
102
RTVSPropertyOp12
 70
     1
102
RTVSPropertyOp13
 70
     1
102
RTVSPropertyOp14
 70
     1
102
RTVSPropertyOp15
 70
     1
102
RTVSPropertyOp16
 70
     1
102
RTVSPropertyOp17
 70
     1
102
RTVSPropertyOp18
 70
     1
102
RTVSPropertyOp19
 70
     1
102
RTVSPropertyOp20
 70
     1
102
RTVSPropertyOp21
 70
     1
102
RTVSPropertyOp22
 70
     1
102
RTVSPropertyOp23
 70
     1
102
RTVSPropertyOp24
 70
     1
102
RTVSPropertyOp25
 70
     1
102
RTVSPropertyOp26
 70
     1
102
RTVSPropertyOp27
 70
     1
102
RTVSPropertyOp28
 70
     1
102
RTVSPropertyOp29
 70
     1
102
RTVSPropertyOp30
 70
     1
102
RTVSPropertyOp31
 70
     1
102
RTVSPropertyOp32
 70
     1
  0
XRECORD
  5
2A2
102
{ACAD_REACTORS
330
2A1
102
}
330
2A1
100
AcDbXrecord
280
     1
102
RTVSPropertyOp0
 70
     1
102
RTVSPropertyOp1
 70
     1
102
RTVSPropertyOp2
 70
     1
102
RTVSPropertyOp3
 70
     1
102
RTVSPropertyOp4
 70
     1
102
RTVSPropertyOp5
 70
     1
102
RTVSPropertyOp6
 70
     1
102
RTVSPropertyOp7
 70
     1
102
RTVSPropertyOp8
 70
     1
102
RTVSPropertyOp9
 70
     1
102
RTVSPropertyOp10
 70
     1
102
RTVSPropertyOp11
 70
     1
102
RTVSPropertyOp12
 70
     1
102
RTVSPropertyOp13
 70
     1
102
RTVSPropertyOp14
 70
     1
102
RTVSPropertyOp15
 70
     1
102
RTVSPropertyOp16
 70
     1
102
RTVSPropertyOp17
 70
     1
102
RTVSPropertyOp18
 70
     1
102
RTVSPropertyOp19
 70
     1
102
RTVSPropertyOp20
 70
     1
102
RTVSPropertyOp21
 70
     1
102
RTVSPropertyOp22
 70
     1
102
RTVSPropertyOp23
 70
     1
102
RTVSPropertyOp24
 70
     1
102
RTVSPropertyOp25
 70
     1
102
RTVSPropertyOp26
 70
     1
102
RTVSPropertyOp27
 70
     1
102
RTVSPropertyOp28
 70
     1
102
RTVSPropertyOp29
 70
     1
102
RTVSPropertyOp30
 70
     1
102
RTVSPropertyOp31
 70
     1
102
RTVSPropertyOp32
 70
     1
  0
XRECORD
  5
2A4
102
{ACAD_REACTORS
330
2A3
102
}
330
2A3
100
AcDbXrecord
280
     1
102
RTVSPropertyOp0
 70
     1
102
RTVSPropertyOp1
 70
     1
102
RTVSPropertyOp2
 70
     1
102
RTVSPropertyOp3
 70
     1
102
RTVSPropertyOp4
 70
     1
102
RTVSPropertyOp5
 70
     1
102
RTVSPropertyOp6
 70
     1
102
RTVSPropertyOp7
 70
     1
102
RTVSPropertyOp8
 70
     1
102
RTVSPropertyOp9
 70
     1
102
RTVSPropertyOp10
 70
     1
102
RTVSPropertyOp11
 70
     1
102
RTVSPropertyOp12
 70
     1
102
RTVSPropertyOp13
 70
     1
102
RTVSPropertyOp14
 70
     1
102
RTVSPropertyOp15
 70
     1
102
RTVSPropertyOp16
 70
     1
102
RTVSPropertyOp17
 70
     1
102
RTVSPropertyOp18
 70
     1
102
RTVSPropertyOp19
 70
     1
102
RTVSPropertyOp20
 70
     1
102
RTVSPropertyOp21
 70
     1
102
RTVSPropertyOp22
 70
     1
102
RTVSPropertyOp23
 70
     1
102
RTVSPropertyOp24
 70
     1
102
RTVSPropertyOp25
 70
     1
102
RTVSPropertyOp26
 70
     1
102
RTVSPropertyOp27
 70
     1
102
RTVSPropertyOp28
 70
     1
102
RTVSPropertyOp29
 70
     1
102
RTVSPropertyOp30
 70
     1
102
RTVSPropertyOp31
 70
     1
102
RTVSPropertyOp32
 70
     1
  0
XRECORD
  5
2C0
102
{ACAD_REACTORS
330
2BF
102
}
330
2BF
100
AcDbXrecord
280
     1
102
RTVSPropertyOp0
 70
     1
102
RTVSPropertyOp1
 70
     1
102
RTVSPropertyOp2
 70
     1
102
RTVSPropertyOp3
 70
     1
102
RTVSPropertyOp4
 70
     1
102
RTVSPropertyOp5
 70
     1
102
RTVSPropertyOp6
 70
     1
102
RTVSPropertyOp7
 70
     1
102
RTVSPropertyOp8
 70
     1
102
RTVSPropertyOp9
 70
     1
102
RTVSPropertyOp10
 70
     1
102
RTVSPropertyOp11
 70
     1
102
RTVSPropertyOp12
 70
     1
102
RTVSPropertyOp13
 70
     1
102
RTVSPropertyOp14
 70
     1
102
RTVSPropertyOp15
 70
     1
102
RTVSPropertyOp16
 70
     1
102
RTVSPropertyOp17
 70
     1
102
RTVSPropertyOp18
 70
     1
102
RTVSPropertyOp19
 70
     1
102
RTVSPropertyOp20
 70
     1
102
RTVSPropertyOp21
 70
     1
102
RTVSPropertyOp22
 70
     1
102
RTVSPropertyOp23
 70
     1
102
RTVSPropertyOp24
 70
     1
102
RTVSPropertyOp25
 70
     1
102
RTVSPropertyOp26
 70
     1
102
RTVSPropertyOp27
 70
     1
102
RTVSPropertyOp28
 70
     1
102
RTVSPropertyOp29
 70
     1
102
RTVSPropertyOp30
 70
     1
102
RTVSPropertyOp31
 70
     1
102
RTVSPropertyOp32
 70
     1
  0
XRECORD
  5
2CC
102
{ACAD_REACTORS
330
2CB
102
}
330
2CB
100
AcDbXrecord
280
     1
102
RTVSPropertyOp0
 70
     0
102
RTVSPropertyOp1
 70
     0
102
RTVSPropertyOp2
 70
     0
102
RTVSPropertyOp3
 70
     0
102
RTVSPropertyOp4
 70
     0
102
RTVSPropertyOp5
 70
     0
102
RTVSPropertyOp6
 70
     0
102
RTVSPropertyOp7
 70
     0
102
RTVSPropertyOp8
 70
     0
102
RTVSPropertyOp9
 70
     0
102
RTVSPropertyOp10
 70
     0
102
RTVSPropertyOp11
 70
     0
102
RTVSPropertyOp12
 70
     0
102
RTVSPropertyOp13
 70
     0
102
RTVSPropertyOp14
 70
     2
102
RTVSPropertyOp15
 70
     0
102
RTVSPropertyOp16
 70
     0
102
RTVSPropertyOp17
 70
     0
102
RTVSPropertyOp18
 70
     0
102
RTVSPropertyOp19
 70
     0
102
RTVSPropertyOp20
 70
     0
102
RTVSPropertyOp21
 70
     0
102
RTVSPropertyOp22
 70
     0
102
RTVSPropertyOp23
 70
     0
102
RTVSPropertyOp24
 70
     0
102
RTVSPropertyOp25
 70
     0
102
RTVSPropertyOp26
 70
     0
102
RTVSPropertyOp27
 70
     0
102
RTVSPropertyOp28
 70
     0
102
RTVSPropertyOp29
 70
     0
102
RTVSPropertyOp30
 70
     0
102
RTVSPropertyOp31
 70
     0
102
RTVSPropertyOp32
 70
     0
  0
XRECORD
  5
2B8
102
{ACAD_REACTORS
330
2B7
102
}
330
2B7
100
AcDbXrecord
280
     1
102
RTVSPropertyOp0
 70
     1
102
RTVSPropertyOp1
 70
     1
102
RTVSPropertyOp2
 70
     1
102
RTVSPropertyOp3
 70
     1
102
RTVSPropertyOp4
 70
     1
102
RTVSPropertyOp5
 70
     1
102
RTVSPropertyOp6
 70
     1
102
RTVSPropertyOp7
 70
     1
102
RTVSPropertyOp8
 70
     1
102
RTVSPropertyOp9
 70
     1
102
RTVSPropertyOp10
 70
     1
102
RTVSPropertyOp11
 70
     1
102
RTVSPropertyOp12
 70
     1
102
RTVSPropertyOp13
 70
     1
102
RTVSPropertyOp14
 70
     1
102
RTVSPropertyOp15
 70
     1
102
RTVSPropertyOp16
 70
     1
102
RTVSPropertyOp17
 70
     1
102
RTVSPropertyOp18
 70
     1
102
RTVSPropertyOp19
 70
     1
102
RTVSPropertyOp20
 70
     1
102
RTVSPropertyOp21
 70
     1
102
RTVSPropertyOp22
 70
     1
102
RTVSPropertyOp23
 70
     1
102
RTVSPropertyOp24
 70
     1
102
RTVSPropertyOp25
 70
     1
102
RTVSPropertyOp26
 70
     1
102
RTVSPropertyOp27
 70
     1
102
RTVSPropertyOp28
 70
     1
102
RTVSPropertyOp29
 70
     1
102
RTVSPropertyOp30
 70
     1
102
RTVSPropertyOp31
 70
     1
102
RTVSPropertyOp32
 70
     1
  0
XRECORD
  5
2CE
102
{ACAD_REACTORS
330
2CD
102
}
330
2CD
100
AcDbXrecord
280
     1
102
RTVSPropertyOp0
 70
     0
102
RTVSPropertyOp1
 70
     0
102
RTVSPropertyOp2
 70
     0
102
RTVSPropertyOp3
 70
     0
102
RTVSPropertyOp4
 70
     0
102
RTVSPropertyOp5
 70
     0
102
RTVSPropertyOp6
 70
     0
102
RTVSPropertyOp7
 70
     0
102
RTVSPropertyOp8
 70
     0
102
RTVSPropertyOp9
 70
     0
102
RTVSPropertyOp10
 70
     0
102
RTVSPropertyOp11
 70
     0
102
RTVSPropertyOp12
 70
     0
102
RTVSPropertyOp13
 70
     0
102
RTVSPropertyOp14
 70
     2
102
RTVSPropertyOp15
 70
     0
102
RTVSPropertyOp16
 70
     0
102
RTVSPropertyOp17
 70
     0
102
RTVSPropertyOp18
 70
     0
102
RTVSPropertyOp19
 70
     0
102
RTVSPropertyOp20
 70
     0
102
RTVSPropertyOp21
 70
     0
102
RTVSPropertyOp22
 70
     0
102
RTVSPropertyOp23
 70
     0
102
RTVSPropertyOp24
 70
     0
102
RTVSPropertyOp25
 70
     0
102
RTVSPropertyOp26
 70
     0
102
RTVSPropertyOp27
 70
     0
102
RTVSPropertyOp28
 70
     0
102
RTVSPropertyOp29
 70
     0
102
RTVSPropertyOp30
 70
     0
102
RTVSPropertyOp31
 70
     0
102
RTVSPropertyOp32
 70
     0
  0
XRECORD
  5
2AE
102
{ACAD_REACTORS
330
2AD
102
}
330
2AD
100
AcDbXrecord
280
     1
102
RTVSPropertyOp0
 70
     1
102
RTVSPropertyOp1
 70
     1
102
RTVSPropertyOp2
 70
     1
102
RTVSPropertyOp3
 70
     1
102
RTVSPropertyOp4
 70
     1
102
RTVSPropertyOp5
 70
     1
102
RTVSPropertyOp6
 70
     1
102
RTVSPropertyOp7
 70
     1
102
RTVSPropertyOp8
 70
     1
102
RTVSPropertyOp9
 70
     1
102
RTVSPropertyOp10
 70
     1
102
RTVSPropertyOp11
 70
     1
102
RTVSPropertyOp12
 70
     1
102
RTVSPropertyOp13
 70
     1
102
RTVSPropertyOp14
 70
     1
102
RTVSPropertyOp15
 70
     1
102
RTVSPropertyOp16
 70
     1
102
RTVSPropertyOp17
 70
     1
102
RTVSPropertyOp18
 70
     1
102
RTVSPropertyOp19
 70
     1
102
RTVSPropertyOp20
 70
     1
102
RTVSPropertyOp21
 70
     1
102
RTVSPropertyOp22
 70
     1
102
RTVSPropertyOp23
 70
     1
102
RTVSPropertyOp24
 70
     1
102
RTVSPropertyOp25
 70
     1
102
RTVSPropertyOp26
 70
     1
102
RTVSPropertyOp27
 70
     1
102
RTVSPropertyOp28
 70
     1
102
RTVSPropertyOp29
 70
     1
102
RTVSPropertyOp30
 70
     1
102
RTVSPropertyOp31
 70
     1
102
RTVSPropertyOp32
 70
     1
  0
XRECORD
  5
2CA
102
{ACAD_REACTORS
330
2C9
102
}
330
2C9
100
AcDbXrecord
280
     1
102
RTVSPropertyOp0
 70
     1
102
RTVSPropertyOp1
 70
     1
102
RTVSPropertyOp2
 70
     1
102
RTVSPropertyOp3
 70
     1
102
RTVSPropertyOp4
 70
     1
102
RTVSPropertyOp5
 70
     1
102
RTVSPropertyOp6
 70
     1
102
RTVSPropertyOp7
 70
     1
102
RTVSPropertyOp8
 70
     1
102
RTVSPropertyOp9
 70
     1
102
RTVSPropertyOp10
 70
     1
102
RTVSPropertyOp11
 70
     1
102
RTVSPropertyOp12
 70
     1
102
RTVSPropertyOp13
 70
     1
102
RTVSPropertyOp14
 70
     1
102
RTVSPropertyOp15
 70
     1
102
RTVSPropertyOp16
 70
     1
102
RTVSPropertyOp17
 70
     1
102
RTVSPropertyOp18
 70
     1
102
RTVSPropertyOp19
 70
     1
102
RTVSPropertyOp20
 70
     1
102
RTVSPropertyOp21
 70
     1
102
RTVSPropertyOp22
 70
     1
102
RTVSPropertyOp23
 70
     1
102
RTVSPropertyOp24
 70
     1
102
RTVSPropertyOp25
 70
     1
102
RTVSPropertyOp26
 70
     1
102
RTVSPropertyOp27
 70
     1
102
RTVSPropertyOp28
 70
     1
102
RTVSPropertyOp29
 70
     1
102
RTVSPropertyOp30
 70
     1
102
RTVSPropertyOp31
 70
     1
102
RTVSPropertyOp32
 70
     1
  0
XRECORD
  5
2C8
102
{ACAD_REACTORS
330
2C7
102
}
330
2C7
100
AcDbXrecord
280
     1
102
RTVSPropertyOp0
 70
     1
102
RTVSPropertyOp1
 70
     1
102
RTVSPropertyOp2
 70
     1
102
RTVSPropertyOp3
 70
     1
102
RTVSPropertyOp4
 70
     1
102
RTVSPropertyOp5
 70
     1
102
RTVSPropertyOp6
 70
     1
102
RTVSPropertyOp7
 70
     1
102
RTVSPropertyOp8
 70
     1
102
RTVSPropertyOp9
 70
     1
102
RTVSPropertyOp10
 70
     1
102
RTVSPropertyOp11
 70
     1
102
RTVSPropertyOp12
 70
     1
102
RTVSPropertyOp13
 70
     1
102
RTVSPropertyOp14
 70
     1
102
RTVSPropertyOp15
 70
     1
102
RTVSPropertyOp16
 70
     1
102
RTVSPropertyOp17
 70
     1
102
RTVSPropertyOp18
 70
     1
102
RTVSPropertyOp19
 70
     1
102
RTVSPropertyOp20
 70
     1
102
RTVSPropertyOp21
 70
     1
102
RTVSPropertyOp22
 70
     1
102
RTVSPropertyOp23
 70
     1
102
RTVSPropertyOp24
 70
     1
102
RTVSPropertyOp25
 70
     1
102
RTVSPropertyOp26
 70
     1
102
RTVSPropertyOp27
 70
     1
102
RTVSPropertyOp28
 70
     1
102
RTVSPropertyOp29
 70
     1
102
RTVSPropertyOp30
 70
     1
102
RTVSPropertyOp31
 70
     1
102
RTVSPropertyOp32
 70
     1
  0
XRECORD
  5
2C2
102
{ACAD_REACTORS
330
2C1
102
}
330
2C1
100
AcDbXrecord
280
     1
102
RTVSPropertyOp0
 70
     1
102
RTVSPropertyOp1
 70
     1
102
RTVSPropertyOp2
 70
     1
102
RTVSPropertyOp3
 70
     1
102
RTVSPropertyOp4
 70
     1
102
RTVSPropertyOp5
 70
     1
102
RTVSPropertyOp6
 70
     1
102
RTVSPropertyOp7
 70
     1
102
RTVSPropertyOp8
 70
     1
102
RTVSPropertyOp9
 70
     1
102
RTVSPropertyOp10
 70
     1
102
RTVSPropertyOp11
 70
     1
102
RTVSPropertyOp12
 70
     1
102
RTVSPropertyOp13
 70
     1
102
RTVSPropertyOp14
 70
     1
102
RTVSPropertyOp15
 70
     1
102
RTVSPropertyOp16
 70
     1
102
RTVSPropertyOp17
 70
     1
102
RTVSPropertyOp18
 70
     1
102
RTVSPropertyOp19
 70
     1
102
RTVSPropertyOp20
 70
     1
102
RTVSPropertyOp21
 70
     1
102
RTVSPropertyOp22
 70
     1
102
RTVSPropertyOp23
 70
     1
102
RTVSPropertyOp24
 70
     1
102
RTVSPropertyOp25
 70
     1
102
RTVSPropertyOp26
 70
     1
102
RTVSPropertyOp27
 70
     1
102
RTVSPropertyOp28
 70
     1
102
RTVSPropertyOp29
 70
     1
102
RTVSPropertyOp30
 70
     1
102
RTVSPropertyOp31
 70
     1
102
RTVSPropertyOp32
 70
     1
  0
XRECORD
  5
2C4
102
{ACAD_REACTORS
330
2C3
102
}
330
2C3
100
AcDbXrecord
280
     1
102
RTVSPropertyOp0
 70
     1
102
RTVSPropertyOp1
 70
     1
102
RTVSPropertyOp2
 70
     1
102
RTVSPropertyOp3
 70
     1
102
RTVSPropertyOp4
 70
     1
102
RTVSPropertyOp5
 70
     1
102
RTVSPropertyOp6
 70
     1
102
RTVSPropertyOp7
 70
     1
102
RTVSPropertyOp8
 70
     1
102
RTVSPropertyOp9
 70
     1
102
RTVSPropertyOp10
 70
     1
102
RTVSPropertyOp11
 70
     1
102
RTVSPropertyOp12
 70
     1
102
RTVSPropertyOp13
 70
     1
102
RTVSPropertyOp14
 70
     1
102
RTVSPropertyOp15
 70
     1
102
RTVSPropertyOp16
 70
     1
102
RTVSPropertyOp17
 70
     1
102
RTVSPropertyOp18
 70
     1
102
RTVSPropertyOp19
 70
     1
102
RTVSPropertyOp20
 70
     1
102
RTVSPropertyOp21
 70
     1
102
RTVSPropertyOp22
 70
     1
102
RTVSPropertyOp23
 70
     1
102
RTVSPropertyOp24
 70
     1
102
RTVSPropertyOp25
 70
     1
102
RTVSPropertyOp26
 70
     1
102
RTVSPropertyOp27
 70
     1
102
RTVSPropertyOp28
 70
     1
102
RTVSPropertyOp29
 70
     1
102
RTVSPropertyOp30
 70
     1
102
RTVSPropertyOp31
 70
     1
102
RTVSPropertyOp32
 70
     1
  0
XRECORD
  5
2B6
102
{ACAD_REACTORS
330
2B5
102
}
330
2B5
100
AcDbXrecord
280
     1
102
RTVSPropertyOp0
 70
     1
102
RTVSPropertyOp1
 70
     1
102
RTVSPropertyOp2
 70
     1
102
RTVSPropertyOp3
 70
     1
102
RTVSPropertyOp4
 70
     1
102
RTVSPropertyOp5
 70
     1
102
RTVSPropertyOp6
 70
     1
102
RTVSPropertyOp7
 70
     1
102
RTVSPropertyOp8
 70
     1
102
RTVSPropertyOp9
 70
     1
102
RTVSPropertyOp10
 70
     1
102
RTVSPropertyOp11
 70
     1
102
RTVSPropertyOp12
 70
     1
102
RTVSPropertyOp13
 70
     1
102
RTVSPropertyOp14
 70
     1
102
RTVSPropertyOp15
 70
     1
102
RTVSPropertyOp16
 70
     1
102
RTVSPropertyOp17
 70
     1
102
RTVSPropertyOp18
 70
     1
102
RTVSPropertyOp19
 70
     1
102
RTVSPropertyOp20
 70
     1
102
RTVSPropertyOp21
 70
     1
102
RTVSPropertyOp22
 70
     1
102
RTVSPropertyOp23
 70
     1
102
RTVSPropertyOp24
 70
     1
102
RTVSPropertyOp25
 70
     1
102
RTVSPropertyOp26
 70
     1
102
RTVSPropertyOp27
 70
     1
102
RTVSPropertyOp28
 70
     1
102
RTVSPropertyOp29
 70
     1
102
RTVSPropertyOp30
 70
     1
102
RTVSPropertyOp31
 70
     1
102
RTVSPropertyOp32
 70
     1
  0
XRECORD
  5
2BE
102
{ACAD_REACTORS
330
2BD
102
}
330
2BD
100
AcDbXrecord
280
     1
102
RTVSPropertyOp0
 70
     1
102
RTVSPropertyOp1
 70
     1
102
RTVSPropertyOp2
 70
     1
102
RTVSPropertyOp3
 70
     1
102
RTVSPropertyOp4
 70
     1
102
RTVSPropertyOp5
 70
     1
102
RTVSPropertyOp6
 70
     1
102
RTVSPropertyOp7
 70
     1
102
RTVSPropertyOp8
 70
     1
102
RTVSPropertyOp9
 70
     1
102
RTVSPropertyOp10
 70
     1
102
RTVSPropertyOp11
 70
     1
102
RTVSPropertyOp12
 70
     1
102
RTVSPropertyOp13
 70
     1
102
RTVSPropertyOp14
 70
     1
102
RTVSPropertyOp15
 70
     1
102
RTVSPropertyOp16
 70
     1
102
RTVSPropertyOp17
 70
     1
102
RTVSPropertyOp18
 70
     1
102
RTVSPropertyOp19
 70
     1
102
RTVSPropertyOp20
 70
     1
102
RTVSPropertyOp21
 70
     1
102
RTVSPropertyOp22
 70
     1
102
RTVSPropertyOp23
 70
     1
102
RTVSPropertyOp24
 70
     1
102
RTVSPropertyOp25
 70
     1
102
RTVSPropertyOp26
 70
     1
102
RTVSPropertyOp27
 70
     1
102
RTVSPropertyOp28
 70
     1
102
RTVSPropertyOp29
 70
     1
102
RTVSPropertyOp30
 70
     1
102
RTVSPropertyOp31
 70
     1
102
RTVSPropertyOp32
 70
     1
  0
XRECORD
  5
2C6
102
{ACAD_REACTORS
330
2C5
102
}
330
2C5
100
AcDbXrecord
280
     1
102
RTVSPropertyOp0
 70
     1
102
RTVSPropertyOp1
 70
     1
102
RTVSPropertyOp2
 70
     1
102
RTVSPropertyOp3
 70
     1
102
RTVSPropertyOp4
 70
     1
102
RTVSPropertyOp5
 70
     1
102
RTVSPropertyOp6
 70
     1
102
RTVSPropertyOp7
 70
     1
102
RTVSPropertyOp8
 70
     1
102
RTVSPropertyOp9
 70
     1
102
RTVSPropertyOp10
 70
     1
102
RTVSPropertyOp11
 70
     1
102
RTVSPropertyOp12
 70
     1
102
RTVSPropertyOp13
 70
     1
102
RTVSPropertyOp14
 70
     1
102
RTVSPropertyOp15
 70
     1
102
RTVSPropertyOp16
 70
     1
102
RTVSPropertyOp17
 70
     1
102
RTVSPropertyOp18
 70
     1
102
RTVSPropertyOp19
 70
     1
102
RTVSPropertyOp20
 70
     1
102
RTVSPropertyOp21
 70
     1
102
RTVSPropertyOp22
 70
     1
102
RTVSPropertyOp23
 70
     1
102
RTVSPropertyOp24
 70
     1
102
RTVSPropertyOp25
 70
     1
102
RTVSPropertyOp26
 70
     1
102
RTVSPropertyOp27
 70
     1
102
RTVSPropertyOp28
 70
     1
102
RTVSPropertyOp29
 70
     1
102
RTVSPropertyOp30
 70
     1
102
RTVSPropertyOp31
 70
     1
102
RTVSPropertyOp32
 70
     1
  0
ENDSEC
  0
EOF
